MUZBANK



A Most Complete Bank Of Music Information

МУЗЫКАЛЬНО-ИНФОРМАЦИОННЫЙ БАНК

Поиск по сайту







    RRamones • Love Kills (аккорды и текст - chords & lyrics)


    225

    Print

    Видео «Love Kills (Ramones)»

    Видео клипы к песне подбираются автоматически сайтом youtube. Возможны некоторые несоответствия клипов песне.

    ↑ Спрятать рекламу ↑



    Download



     
    
    
    Song:Love Kills
    
    Band:ramones
    
    Album:Animal Boy
    
    tabbed by:Ian Higbee nekroskankliac@hotmail.com
    
    
    
    
    
    Intro and solo
    
    
    
    G:---------------------------------------------------------------
    
    D:---------------------------------------------------------------
    
    A:-9/10-10-10-9/10-10-10-6/7-7-7-2/3-3-3-2/3-3-3-4/5-5---------------------
    
    E:-----------------------------------------------------3-3-3-2-2-3-3-3-2-2
    
    
    
    verses
    
    G:---------------------------------------------------------------
    
    D:-5-5-5-5-5-5-5-5-
    
    A:------------------7-7-7-7-7-7-7-7-3-3-3-3-3-3-3-3-5-5-5-5-5-5-5-5-
    
    E:---------------------------------------------------------------
    
    
    
    
    
    G:---------------------------------------------------------------
    
    D:---------------------------------------------------------------
    
    A:-------2-2-3-3-5-5-5-5-(right at the end of chorus keep playing the D
    
    E:-3--3------------------
     

    Тональность:

    Нет текста!



    Назад
    Рекомендуем посмотреть другие песни исполнителя «Ramones»:

    • Комментарии Facebook ()
    • Комментарии ВКонтакте



    Добавить в Избранное Браузера
    Сохранить здесь Очистить


    x

    0


    +
    -

    +
    -

    -

    Авторизация





    Зарегистрироваться

    M

    Дата и время

    • 11:17:46
       

    Социальные ссылки


    Наши приложения

    • Muzbank App Play Market
    • Muzbank Amazon App