MUZBANK



A MOST COMPLETE BANK OF MUSIC INFORMATION

МУЗЫКАЛЬНО-ИНФОРМАЦИОННЫЙ БАНК







    RRamones • Ramones (аккорды и текст - chords & lyrics)


    493

    Print

    Видео «Ramones (Ramones)»

    Видео клипы к песне подбираются автоматически сайтом youtube. Возможны некоторые несоответствия клипов песне.

    ↑ Спрятать рекламу ↑



    Download


     
    
    
    any shit you know destinypunk@hotmail.com ho
    
    r.a.m.o.n.e.s.
    
    INTRO
    
    6-----------
    5--3--too---
    4--5--many--
    3--5--times-
    2-----------
    1-----------
    
    VERSE
    
    6---------------3-3-3-3--1-1-1-1--
    5--3-3-3-3-3-3--5-5-5-5--3-3-3-3--
    4--5-5-5-5-5-5--5-5-5-5--3-3-3-3--
    3--5-5-5-5-5-5--------------------  x2
    2---------------------------------
    1---------------------------------
    
    PRE CHORUS
    
    6--1-1-1-1-1-1--3-3-3-3-3-3--1-1-1-1-1-1-1--3-3-3-3-3-3-3-3--6-6-6-6-6-6-6--
    5--3-3-3-3-3-3--5-5-5-5-5-5--3-3-3-3-3-3-3--5-5-5-5-5-5-5-5--8-8-8-8-8-8-8--
    4--3-3-3-3-3-3--5-5-5-5-5-5--3-3-3-3-3-3-3--5-5-5-5-5-5-5-5--8-8-8-8-8-8-8--
    3---------------------------------------------------------------------------
    2---------------------------------------------------------------------------
    1---------------------------------------------------------------------------
    
    repet the verse another pre chorus and then this and then repeat a verse
    a pre chorus and thats it.
    
    INTERLUDE
    
    6-------3-3-------5-5-------------
    5--3-3--5-5--5-5--7-7-------------
    4--5-5--5-5--7-7--7-7-------------
    3--5-5-------7-7------------------
    2---------------------------------
    1---------------------------------
     

    Тональность:

    Нашли ошибку?



    Назад
    Рекомендуем посмотреть другие песни исполнителя «Ramones»:

    • Комменты Fb ()
    • Комменты ВК



    Добавить в Избранное Браузера
    Сохранить здесь Очистить


    x

    0


    +
    -

    +
    -

    -

    Авторизация





    Зарегистрироваться

    M

    Дата и время

    • 10:05:00
       

    Социальные ссылки


    Наши приложения

    • Muzbank App Play Market
    • Muzbank Amazon App