MUZBANK



A Most Complete Bank Of Music Information

МУЗЫКАЛЬНО-ИНФОРМАЦИОННЫЙ БАНК

Поиск по сайту







    RRamones • Rock And Roll High School (аккорды и текст - chords & lyrics)


    242

    Print

    Видео «Rock And Roll High School (Ramones)»

    Видео клипы к песне подбираются автоматически сайтом youtube. Возможны некоторые несоответствия клипов песне.

    ↑ Спрятать рекламу ↑



    Download


     
    
    
    this is a great song so enjoy it
    
    any shit DESTINYPUNK@HOTMAIL.COM
    
    INTRO AND VERSE
    
    6--2/3-3-3-3-3-3-3-3-----------------------------------
    5--4/5-5-5-5-5-5-5-5------2/3-3-3-3-3-3----------------
    4--4/5-5-5-5-5-5-5-5--x2--4/5-5-5-5-5-5--first part--x4
    3-------------------------4/5-5-5-5-5-5--second part-x2   x2
    2------------------------------------------------------
    1------------------------------------------------------
    
    CHORUS
    
    6--7-7-7-7-7-7-----------------
    5--9-9-9-9-9-9--9-9-9-9-9-9-9--
    4--9-9-9-9-9-9--1111111111111--
    3---------------1111111111111--  x2
    2------------------------------
    1------------------------------
    
    6-------5-5--1-1-1--5--3--3-3-3---
    5--3-3--7-7--3-3-3--7--5--5-5-5---
    4--5-5--7-7--3-3-3--7--5--5-5-5---
    3--5-5----------------------------
    2---------------------------------
    1---------------------------------
    
    and the repeat a verse but its kind like taped then another chorus and the repeat
    the full song like i wanna be sedated two steps more like 7 is 9 5 is 7 you know
    and the real finish its whit some kind of pitch and thats all.
     

    Тональность:

    Нет текста!



    Назад
    Рекомендуем посмотреть другие песни исполнителя «Ramones»:

    • Комментарии Facebook ()
    • Комментарии ВКонтакте



    Добавить в Избранное Браузера
    Сохранить здесь Очистить


    x

    0


    +
    -

    +
    -

    -

    Авторизация





    Зарегистрироваться

    M

    Дата и время

    • 04:16:32
       

    Социальные ссылки


    Наши приложения

    • Muzbank App Play Market
    • Muzbank Amazon App