MUZBANK



A Most Complete Bank Of Music Information

МУЗЫКАЛЬНО-ИНФОРМАЦИОННЫЙ БАНК

Поиск по сайту







    RRamones • Spiderman Theme Song (аккорды и текст - chords & lyrics)


    250

    Print

    Видео «Spiderman Theme Song (Ramones)»

    Видео клипы к песне подбираются автоматически сайтом youtube. Возможны некоторые несоответствия клипов песне.

    ↑ Спрятать рекламу ↑



    Download



     
    
    
    intro x 4
    G|------------|
    D|---44-55-77-|
    A|-55---------|
    E|------------|
    
    verses
    G|-------44-55-77-(x2)--------------------66-77-99---44-55-77------------------|
    D|---44-55-77-(x4)--55---44-55-77-(x2)--77---------55-----------44-55-77-(x2)--|
    A|-55------------------------------55-------------------------55---------------|
    E|-----------------------------------------------------------------------------|
    
    chorus
    G|------------------------------------------------------------------------|
    D|-33333333----------55555555---------33333333---------55555555-77777777--|
    A|----------33333333----------55555555---------3333333--------------------|
    E|------------------------------------------------------------------------|
    
    verse 2 (and solo) x 2
    G|-------------------------------------------------|
    D|----------5-(x16)---------7-(x8)-5-(x8)----------|
    A|-5-(x32)----------5-(x16)---------------5-(x16)--|
    E|-------------------------------------------------|
    
    outro (after verse)
    G|--------------44-55-77--------------44-55-77----------|
    D|---44-55-77-55-----------44-55-77-55------------------|
    A|-55--------------------55--------------------5----5---|
    E|------------------------------------------------------|
    
    Thats it!
     

    Тональность:

    Нет текста!



    Назад
    Рекомендуем посмотреть другие песни исполнителя «Ramones»:

    • Комментарии Facebook ()
    • Комментарии ВКонтакте



    Добавить в Избранное Браузера
    Сохранить здесь Очистить


    x

    0


    +
    -

    +
    -

    -

    Авторизация





    Зарегистрироваться

    M

    Дата и время

    • 19:15:50
       

    Социальные ссылки


    Наши приложения

    • Muzbank App Play Market
    • Muzbank Amazon App