MUZBANK



A Most Complete Bank Of Music Information

МУЗЫКАЛЬНО-ИНФОРМАЦИОННЫЙ БАНК








    RRamones • The Crusher (аккорды и текст - chords & lyrics)


    331

    Print

    Видео «The Crusher (Ramones)»

    Видео клипы к песне подбираются автоматически сайтом youtube. Возможны некоторые несоответствия клипов песне.

    ↑ Спрятать рекламу ↑





     
    
    
    This song sounded hard so I was disapointed to see no listings for it. This is another 
    that I think needs to be tabed out. So here is my version to the song.
    
    Intro
    
    E|-------------------|--------------------------|--------------|
    B|-------------------|--------------------------|--------------|
    G|-9-9-9-9-9-9-12-11-|--------------------------|--------------|
    D|-9-9-9-9-9-9-12-11-|-12-11--10-10-10-10-10-10-|-7-7-7-7-7-7--|
    A|-7-7-7-7-7-9-10--9-|-12-11--10-10-10-10-10-10-|-7-7-7-7-7-7--|
    e|-------------------|-10--9---8--8--8--8--8--8-|-5-5-5-5-5-5--|
    
    E|-------------------|--------------------------|--------------|
    B|-------------------|--------------------------|--------------|
    G|-9-9-9-9-9-9-12-11-|--------------------------|--------------|
    D|-9-9-9-9-9-9-12-11-|-12-11--10-10-10-10-10-10-|-7-7-7-7-7-7--|
    A|-7-7-7-7-7-9-10--9-|-12-11--10-10-10-10-10-10-|-7-7-7-7-7-7--|
    e|-------------------|-10--9---8--8--8--8--8--8-|-5-5-5-5-5-5--|
    
    Verse
    
    E|-------------------|--------------------------|--------------|
    B|-------------------|--------------------------|--------------|
    G|-9-9-9-9-9-9-12-11-|--------------------------|--------------|
    D|-9-9-9-9-9-9-12-11-|-12-11--10-10-10-10-10-10-|-7-7-7-7-7-7--|
    A|-7-7-7-7-7-9-10--9-|-12-11--10-10-10-10-10-10-|-7-7-7-7-7-7--|
    e|-------------------|-10--9---8--8--8--8--8--8-|-5-5-5-5-5-5--|
       ............................................................
    P.M.
    
    E|-------------------|--------------------------|--------------|
    B|-------------------|--------------------------|--------------|
    G|-9-9-9-9-9-9-12-11-|--------------------------|--------------|
    D|-9-9-9-9-9-9-12-11-|-12-11--10-10-10-10-10-10-|-7-7-7-7-7-7--|
    A|-7-7-7-7-7-9-10--9-|-12-11--10-10-10-10-10-10-|-7-7-7-7-7-7--|
    e|-------------------|-10--9---8--8--8--8--8--8-|-5-5-5-5-5-5--|
       ............................................................
    P.M.
    
    Bridge
    
    E|--------------------------|-----------------------|
    B|--------------------------|-----------------------|
    G|--11-11-11-11-11-11-11-11-|-14-14-14-14--9-9-9-9--|
    D|--11-11-11-11-11-11-11-11-|-14-14-14-14--9-9-9-9--|
    A|---9--9--9--9--9--9--9--9-|-12-12-12-12--7-7-7-7--|
    e|--------------------------|-----------------------|
    
    E|--------------------------|-------------------------|
    B|--------------------------|-------------------------|
    G|--11-11-11-11-11-11-11-11-|-14-14-14-14-14-14-14-14-|
    D|--11-11-11-11-11-11-11-11-|-14-14-14-14-14-14-14-14-|
    A|---9--9--9--9--9--9--9--9-|-12-12-12-12-12-12-12-12-|
    e|--------------------------|-------------------------|
    
    Chourus
    
    E|-------------------|--------------------------|--------------|
    B|-------------------|--------------------------|--------------|
    G|-9-9-9-9-9-9-12-11-|--------------------------|--------------|
    D|-9-9-9-9-9-9-12-11-|-12-11--10-10-10-10-10-10-|-7-7-7-7-7-7--|
    A|-7-7-7-7-7-9-10--9-|-12-11--10-10-10-10-10-10-|-7-7-7-7-7-7--|
    e|-------------------|-10--9---8--8--8--8--8--8-|-5-5-5-5-5-5--|
    
    E|-------------------|--------------------------|--------------|
    B|-------------------|--------------------------|--------------|
    G|-9-9-9-9-9-9-12-11-|--------------------------|--------------|
    D|-9-9-9-9-9-9-12-11-|-12-11--10-10-10-10-10-10-|-7-7-7-7-7-7--|
    A|-7-7-7-7-7-9-10--9-|-12-11--10-10-10-10-10-10-|-7-7-7-7-7-7--|
    e|-------------------|-10--9---8--8--8--8--8--8-|-5-5-5-5-5-5--|
    
    E|-------------------|--------------------------|--------------|
    B|-------------------|--------------------------|--------------|
    G|-9-9-9-9-9-9-12-11-|--------------------------|--------------|
    D|-9-9-9-9-9-9-12-11-|-12-11--10-10-10-10-10-10-|-7-7-7-7-7-7--|
    A|-7-7-7-7-7-9-10--9-|-12-11--10-10-10-10-10-10-|-7-7-7-7-7-7--|
    e|-------------------|-10--9---8--8--8--8--8--8-|-5-5-5-5-5-5--|
    
    E|-------------------|--------------------------|--------------|
    B|-------------------|--------------------------|--------------|
    G|-9-9-9-9-9-9-12-11-|--------------------------|--------------|
    D|-9-9-9-9-9-9-12-11-|-12-11--10-10-10-10-10-10-|-7-7-7-7-7-7--|
    A|-7-7-7-7-7-9-10--9-|-12-11--10-10-10-10-10-10-|-7-7-7-7-7-7--|
    e|-------------------|-10--9---8--8--8--8--8--8-|-5-5-5-5-5-5--|
    
    Then keep repeating untill the end
    
    and questions comments Number666blader@aol.com
     

    Тональность:

    Нашли ошибку?



    Назад
    Рекомендуем посмотреть другие песни исполнителя «Ramones»:

    • Комменты Fb ()
    • Комменты ВК



    Добавить в Избранное Браузера
    Сохранить здесь Очистить


    x

    0


    +
    -

    +
    -

    -

    Авторизация





    Зарегистрироваться

    M

    Дата и время

    • 09:20:26
       

    Социальные ссылки


    Наши приложения

    • Muzbank App Play Market
    • Muzbank Amazon App