MUZBANK



A Most Complete Bank Of Music Information

МУЗЫКАЛЬНО-ИНФОРМАЦИОННЫЙ БАНК

Поиск по сайту







    RRamones • Zero Zero Ufo (аккорды и текст - chords & lyrics)


    398

    Print

    Видео «Zero Zero Ufo (Ramones)»

    Видео клипы к песне подбираются автоматически сайтом youtube. Возможны некоторые несоответствия клипов песне.

    ↑ Спрятать рекламу ↑



    Download


     
    
    
    any shit  DESTINYPUNK@HOTMAIL.COM
    
    ZeRo ZeRo UFO
    
    intro and verse
    
    6--0-0--5-5-5--5-5-5-5--3-3--0-0---
    5--2-2--7-7-7--7-7-7-7--5-5--2-2---
    4--2-2--7-7-7--7-7-7-7--5-5--2-2---
    3----------------------------------  repeat a few times
    2----------------------------------
    1----------------------------------
    
    chorus
    
    6------------------------
    5--3-3-3-3-3-3-3-3-3-3---
    4--5-5-5-5-5-5-5-5-5-5---
    3--5-5-5-5-5-5-5-5-5-5---  first part
    2------------------------
    1------------------------
    
    6--------------------------------
    5--7-7-7--10/12-12-12-12-12-12---
    4--9-9-9--x-x-x-x-x-x-x-x-x-x-x--
    3--9-9-9--12/14-14-14-14-14-14---  second part
    2--------------------------------  x2
    1--------------------------------
    
    a little part like this.....
    
    6--7-7-7-7-7-7---
    5--9-9-9-9-9-9---
    4--9-9-9-9-9-9---
    3---------------- x2
    2----------------
    1----------------
    
    then repeat another verse another chorus and then......
    
    solo
    
    6-----------------------------------------------------------------------------
    5-----------------------------------------------------------------------------
    4-----------------------------------------------------------------------------
    3-----------------------------------------------------------------------------
    2-----------------------------------------------------------------------------
    1--0-0-0-0-0-0-0-0--7-7-7-7-7-7-7-7--x2--12-12-12-12-12-12--7-7-7-7-7-7-7-7---
    
    6-----------------------------------------------
    5-----------------------------------------------
    4-----------------------------------------------
    3-----------------------------------------------
    2-----------------------------------------------
    1--12-12-12-12-12-12--7-7-7-7--12-12-12-12-12---
    
    then repeat the chorus x2 and then the second part of the chorus x2 and finish like this.....
    
    end
    
    6------
    5--7---
    4--9---
    3--9---
    2------
    1------
     

    Тональность:

    Нет текста!



    Назад
    Рекомендуем посмотреть другие песни исполнителя «Ramones»:

    • Комментарии Facebook ()
    • Комментарии ВКонтакте



    Добавить в Избранное Браузера
    Сохранить здесь Очистить


    x

    0


    +
    -

    +
    -

    -

    Авторизация





    Зарегистрироваться

    M

    Дата и время

    • 11:05:51
       

    Социальные ссылки


    Наши приложения

    • Muzbank App Play Market
    • Muzbank Amazon App