MUZBANK



A Most Complete Bank Of Music Information

МУЗЫКАЛЬНО-ИНФОРМАЦИОННЫЙ БАНК

Поиск по сайту







    RRancid • Black And Blue (аккорды и текст - chords & lyrics)


    232

    Print

    Видео «Black And Blue (Rancid)»

    Видео клипы к песне подбираются автоматически сайтом youtube. Возможны некоторые несоответствия клипов песне.

    ↑ Спрятать рекламу ↑



    Download


     
    
    
    Song Title: BLACK & BLUE
    Artist: Rancid
    ----------------------------------------------
    
    				INTRO
    
    G---------------------------------------------------------------------------
    D---------------------------------------------------------------------------
    A---55-5555--------------------55-5555--55-5555--------------------55-5555--
    E------------55-5555--33-3333--------------------55-5555--33-3333-----------
    
    G-----------
    D-----------
    A-----------
    E---55-3-22-
    
    				VERSE (x2)
    
    G------------------------------------------------------------------
    D------------------------------------------------------------------
    A---555555555555--333333333333--555555555555--333333333333--03-03--
    E------------------------------------------------------------------
    
    G-------------
    D-------------   (play this after the second time the verse is played)
    A-------------
    E---55-3-22---
    
    				CHORUS (x4)
    
    G--------------------------------
    D--------------------------------
    A---5-55-------------------------
    E---------3033--5-5-55--3033-----
    
    then... 
    verse (x2)
    chorus (x4)
    
    				SOLO (sort of) (x8)
    
    G-----7-5555-----------
    D------------777-5H7---
    A---5------------------
    E----------------------
    (its not exact and there are some changes in it so listen to the song and figure
    it out i guess.)
    then...
    chorus (x8)
    done
    
    Submitted by:  Steve Webster (webster@limestone,kosone.com)
     

    Тональность:

    Нет текста!



    Назад
    Рекомендуем посмотреть другие песни исполнителя «Rancid»:

    • Комментарии Facebook ()
    • Комментарии ВКонтакте



    Добавить в Избранное Браузера
    Сохранить здесь Очистить


    x

    0


    +
    -

    +
    -

    -

    Авторизация





    Зарегистрироваться

    M

    Дата и время

    • 23:13:17
       

    Социальные ссылки


    Наши приложения

    • Muzbank App Play Market
    • Muzbank Amazon App