MUZBANK



A Most Complete Bank Of Music Information

МУЗЫКАЛЬНО-ИНФОРМАЦИОННЫЙ БАНК

Поиск по сайту







    RRancid • Something In The World Today (аккорды и текст - chords & lyrics)


    244

    Print

    Видео «Something In The World Today (Rancid)»

    Видео клипы к песне подбираются автоматически сайтом youtube. Возможны некоторые несоответствия клипов песне.

    ↑ Спрятать рекламу ↑



    Download


     
    
    
    Rancid
    Something in the World Today
    
    Here it is because of Matthew Picheca
    Problems, suggestions? dexter86holland@hotmail.com
    mail me netime!!!!
    
    Intro:
    
    G:----------------------------------------------------------------------
    D:-------------/5-3---------------------2-3-4-5----5-5---5-3---3--------
    A:---0-3-4-5--------5-3-5-----0-3-4-5------------------------5---5-3----
    E:-3------------------------3----------------------------------------5-3
    
    Chorus (play main riff twice with two different endings!):
    * = play many times, fast, bout 15 times
    
    G:-----------------------------------|---------|----------|
    D:-----------------------------------|---------|----------|
    A:-5*----0-11111111-0-----------3-5*-|-0-3-4-5-|----------|
    E:----1*---------------33333333------|---------|-33333333-|
    
    Chorus:
    
    G:-----------------------
    D:------3333/-8888-555-7-
    A:-5555------------------
    E:-----------------------
    
    Brige (fast, hard timing):
    play first part once, play the rest a couple more times
    Patr #1
    
    G:--------------------------------------------------------
    D:--------------/5-3---------------------5-3---3----------
    A:---0-3-5-----------5-3-5---5-3-5-3---------5---5-3------
    E:-3-------3-------------------------3---------------5-3--
    
    Part #2 (repeat until end of song)
    
    G:----------------------------------------------
    D:-----------------------------------/5-3-------
    A:-555555555555---0-3-5-------------------5-3-5-
    E:--------------3-------333333333333------------
     

    Тональность:

    Нет текста!



    Назад
    Рекомендуем посмотреть другие песни исполнителя «Rancid»:

    • Комментарии Facebook ()
    • Комментарии ВКонтакте



    Добавить в Избранное Браузера
    Сохранить здесь Очистить


    x

    0


    +
    -

    +
    -

    -

    Авторизация





    Зарегистрироваться

    M

    Дата и время

    • 21:31:09
       

    Социальные ссылки


    Наши приложения

    • Muzbank App Play Market
    • Muzbank Amazon App