MUZBANK



A Most Complete Bank Of Music Information

МУЗЫКАЛЬНО-ИНФОРМАЦИОННЫЙ БАНК

Поиск по сайту







    RRancid • Somethings Gotta Give (аккорды и текст - chords & lyrics)


    269

    Print

    Видео «Somethings Gotta Give (Rancid)»

    Видео клипы к песне подбираются автоматически сайтом youtube. Возможны некоторые несоответствия клипов песне.

    ↑ Спрятать рекламу ↑



    Download


     
    
    
    Intro:
    e|-----------------------|
    b|-----------------------|
    g|-----------------------|
    d|-----------------------|(4x)
    a|-----------------------|
    E|-0-0-0h2-2-3-3-3-2-2-2-|
    
    Main Rythem (chorus):
    e|-----------------------|
    b|-----------------------|
    g|-----------------------| (4x)
    d|-----------------------|
    a|-2-2-2-4-4-5-5-5-4-4-4-|
    E|-0-0-0h2-2-3-3-3-2-2-2-|
    
    Main Lead Riff (chorus riff):
    e|-12h11------------------------|
    b|------12-10-x-13-x-12-12-(4x)-|
    g|------------------------------|
    d|------------------------------|
    a|------------------------------|
    E|------------------------------|
    
    e|----------------------------------------------------|
    b|11h12-12-12-11h12-12-11h12-12-12-12-11h12-12-12-(4x)|
    g|----------------------------------------------------|
    d|----------------------------------------------------|
    a|----------------------------------------------------|
    E|----------------------------------------------------|
    
    Verse (lead):
    e|------------------------------------------------|
    b|------------------------------------------------|
    g|------------------------------------------------|
    d|------------------------------------------------|
    a|-0-0-0h2-3-5-5-5-3-3-3-0-0-0h2-3-5-5-5-3-3-3(4x)|
    E|------------------------------------------------|
    
    Verse (rythem):
    e|-----------------------------------------------------------------|
    b|-----------------------------------------------------------------|
    g|-1717171717171717161616161616161614141414141414141414141414141414|
    d|-xxxxxxxxxxxxxxxxxxxxxxxxxxxxxxxxxxxxxxxxxxxxxxxxxxxxxxxxxxxxxxxx|(4x)
    a|-1515151515151515141414141414141412121212121212121212121212121212|
    E|-----------------------------------------------------------------|
    
    chorus (4x)
    Verse  (4x)
    Then Lead chorus riff by itself (play eight times).
    
    solo rythem:
    e|--------------------------------------------------------|
    b|--------------------------------------------------------|
    g|--------------------------------------------------------|
    d|--------------------------------------------------------|(4x)
    a|-7-7-7-7-7-7-7-5-5-5-5-5-5-5-2-2-2-2-2-2-2-2-2-2-2-2-2-2|
    E|-5-5-5-5-5-5-5-3-3-3-3-3-3-3-0-0-0-0-0-0-0-0-0-0-0-0-0-0|
    
    solo 1st part:
    e|----------15---15-17-17-17b19-17b19-17br19-17p15-------|
    b|-x-x-15-17--17-----------------------------------15-15-|
    g|-------------------------------------------------------|(2x)
    d|-------------------------------------------------------|
    a|-------------------------------------------------------|
    E|-------------------------------------------------------|
    
    solo 2nd part:
    e|-17h15----17h15----17h15----17h15----17h15----|
    b|-------17-------17-------17-------17-------17-|
    g|----------------------------------------------|
    d|----------------------------------------------|(2x)
    a|----------------------------------------------|
    E|----------------------------------------------|
    
    e|----------15---15-17-17-17b19-17b19-17br19-17p15-------|
    b|-x-x-15-17--17-----------------------------------15-15-|
    g|-------------------------------------------------------|(1x)
    d|-------------------------------------------------------|
    a|-------------------------------------------------------|
    E|-------------------------------------------------------|
    
    chorus (ending):
    e|-12h11------------------------|
    b|------12-10-x-13-x-12-12-(4x)-|
    g|------------------------------|
    d|------------------------------|
    a|------------------------------|
    E|------------------------------|
    
    e|----------------------------------------------------||-0--0--0-------------
    b|11h12-12-12-11h12-12-11h12-12-12-12-11h12-12-12-(4x)||13-10-12(bend slowly)
    g|----------------------------------------------------||---------------------
    d|----------------------------------------------------||---------------------
    a|----------------------------------------------------||---------------------
    E|----------------------------------------------------||---------------------
     

    Тональность:

    Нет текста!



    Назад
    Рекомендуем посмотреть другие песни исполнителя «Rancid»:

    • Комментарии Facebook ()
    • Комментарии ВКонтакте



    Добавить в Избранное Браузера
    Сохранить здесь Очистить


    x

    0


    +
    -

    +
    -

    -

    Авторизация





    Зарегистрироваться

    M

    Дата и время

    • 15:00:18
       

    Социальные ссылки


    Наши приложения

    • Muzbank App Play Market
    • Muzbank Amazon App