MUZBANK



A Most Complete Bank Of Music Information

МУЗЫКАЛЬНО-ИНФОРМАЦИОННЫЙ БАНК

Поиск по сайту







    RRasmus • Back In The Picture (аккорды и текст - chords & lyrics)


    252

    Print

    Видео «Back In The Picture (Rasmus)»

    Видео клипы к песне подбираются автоматически сайтом youtube. Возможны некоторые несоответствия клипов песне.

    ↑ Спрятать рекламу ↑



    Download


    Sequence:
    
    Intro X2
    verse 1
    Chorus
    Verse 1
    Chorus
    Verse 2
    Chorus
    Ending
    
    Intro:
    
    Guitar 1
    E|------------------------------------------------------------|
    B|------------------------------------------------------------|
    G|------------------------------------------------------------|
    D|x-x-x-x---4--4-4--2-2-2--2-2-2-2-----4--4-4--2-2-2--2-2-2-2-|
    A|x-x-x-x---4--4-4--2-2-2--2-2-2-2-----4--4-4--2-2-2--2-2-2-2-|
    E|x-x-x-x---4--4-4--2-2-2--2-2-2-2-----4--4-4--2-2-2--2-2-2-2-|
    
    Guitar 2
    E|----------------------------------------------------------------|
    B|----------------------------5---------------------------5-------|
    G|------------------------5/6---6-4-------------------5/6---6-4-7-|
    D|x-x-x-x---------------------------7-----------------------------|
    A|x-x-x-x---------------------------------------------------------|
    E|x-x-x-x---------------------------------------------------------|
    
    Guitar 1 (play only during first run)
    E|----------------------------------------|---------|
    B|----------------------------------------|---------|
    G|7--7--7--7-6-6------------5--5--5--5----|---------|
    D|7--7--7--7-6-6--7--7--7---5--5--5--5-7--|-7-7-7-7-|
    A|5--5--5--5-4-4--7--7--7---3--3--3--3-7--|-7-7-7-7-|
    E|----------------7--7--7--------------7--|-7-7-7-7-|
    
    Guitar 2
    E|-----------9-7-----|
    B|7-9-10-9-7------10-|
    G|-------------------|
    D|-------------------|
    A|-------------------|
    E|-------------------|
    
    Verse 1:
    
    Guitar 1
    E|------------------------------------------------------------|
    B|------------------------------------------------------------|
    G|------------------------------------------------------------|
    D|77--77---77--7-7---44--44---44--4-4--------99--99---99--9-9-|
    A|77--77---77--7-7---44--44---44--4-4--------99--99---99--9-9-|
    E|77--77---77--7-7---44--44---44--4-4--------99--99---99--9-9-|
    
    Guitar 2
    E|-------------------------------------------|
    B|---------------------------------1/2-2-----|
    G|---------------------------2-4-2-------4-2-|
    D|-------------------------------------------|
    A|-------------------------------------------|
    E|-------------------------------------------|
    
    Guitar 1
    E|--------------------|
    B|--------------------|
    G|66--66---6-6--------|
    D|66--66---6-6--6-6-6-|
    A|44--44---4-4--6-6-6-|
    E|--------------6-6-6-|
    
    Guitar 2
    E|--------------------|
    B|--------------------|
    G|--------------6-6-6-|
    D|--------------6-6-6-|
    A|--------------4-4-4-|
    E|--------------------|
    
    Guitar 1
    E|------------------------------------------------------------|
    B|------------------------------------------------------------|
    G|------------------------------------------------------------|
    D|77--77---77--7-7---44--44---44--4-4--------99--99---99--9-9-|
    A|77--77---77--7-7---44--44---44--4-4--------99--99---99--9-9-|
    E|77--77---77--7-7---44--44---44--4-4--------99--99---99--9-9-|
    
    Guitar 2
    E|-------------------------------------------|
    B|---------------------------------1/2-2-----|
    G|---------------------------2-4-2-------4-2-|
    D|-------------------------------------------|
    A|-------------------------------------------|
    E|-------------------------------------------|
    
    Guitar 1
    E|------------------------|
    B|------------------------|
    G|6-6-6-6-----------------|
    D|6-6-6-6-5-5-5-5-0-0-0-0-|
    A|4-4-4-4-5-5-5-5-0-0-0-0-|
    E|--------5-5-5-5-0-0-0-0-|
    
    Verse 2: (no guitar 2)
    
    Guitar 1
    E|------------------------------------------------------------|
    B|------------------------------------------------------------|
    G|------------------------------------------------------------|
    D|77--77---77--7-7---44--44---44--4-4--------99--99---99--9-9-|
    A|77--77---77--7-7---44--44---44--4-4--------99--99---99--9-9-|
    E|77--77---77--7-7---44--44---44--4-4--------99--99---99--9-9-|
    
    Guitar 1
    E|-----------------------------------|
    B|-----------------------------------|
    G|-----------------------------------|
    D|7--7--7--7--4--4--4--4--9--9--9--9-|
    A|7--7--7--7--4--4--4--4--9--9--9--9-|
    E|7--7--7--7--4--4--4--4--9--9--9--9-|
    
    Chorus:
    
    Guitar 1
    E|-------------------------------------------|
    B|-------------------------------------------|
    G|-------------------------------------------|
    D|x-x-x-x-x-x-x-x-----4--4-4--2-2-2--2-2-2-2-|
    A|x-x-x-x-x-x-x-x-----4--4-4--2-2-2--2-2-2-2-|
    E|x-x-x-x-x-x-x-x-----4--4-4--2-2-2--2-2-2-2-|
    
    Guitar 2
    E|----------------------------------------------|
    B|------------5-------------------------5-------|
    G|--------5/6---6-4-----------------5/6---6-4---|
    D|------------------7-------------------------7-|
    A|----------------------------------------------|
    E|----------------------------------------------|
    
    Guitar 1
    E|--------------------------------------------------------------------------|
    B|--------------------------------------------------------------------------|
    G|-------------------------7--7--7--7-6-6------------5--5--5--5-------------|
    D|4--4-4--2-2-2--2-2-2-2---7--7--7--7-6-6--7--7--7---5--5--5--5-7---7-7-7-7-|
    A|4--4-4--2-2-2--2-2-2-2---5--5--5--5-4-4--7--7--7---3--3--3--3-7---7-7-7-7-|
    E|4--4-4--2-2-2--2-2-2-2-------------------7--7--7--------------7---7-7-7-7-|
    
    Guitar 2
    E|--------------------------------------9-7-----|
    B|------------------5--------7-9-10-9-7------10-|
    G|--------------5/6---6-4--7--------------------|
    D|----------------------------------------------|
    A|----------------------------------------------|
    E|----------------------------------------------|
    
    Guitar 1
    E|--------------------------------------------------|
    B|--------------------------------------------------|
    G|--------------------------------------------------|
    D|4--4-4--2-2-2--2-2-2-2-----4--4-4--2-2-2--2-2-2-2-|
    A|4--4-4--2-2-2--2-2-2-2-----4--4-4--2-2-2--2-2-2-2-|
    E|4--4-4--2-2-2--2-2-2-2-----4--4-4--2-2-2--2-2-2-2-|
    
    Guitar 2
    E|------------------------------------------------------|
    B|------------------5---------------------------5-------|
    G|--------------5/6---6-4-------------------5/6---6-4-7-|
    D|------------------------7-----------------------------|
    A|------------------------------------------------------|
    E|------------------------------------------------------|
    
    Guitar 1 (skip this section during last chorus)
    E|-------------------------------------------------|-------------|
    B|-------------------------------------------------|-------------|
    G|7--7--7--7-6-6------------5--5--5--5-------------|--5--5-5-5---|
    D|7--7--7--7-6-6--7--7--7---5--5--5--5-7--7-7-7-7--|--5--5-5-5-7-|
    A|5--5--5--5-4-4--7--7--7---3--3--3--3-7--7-7-7-7--|--3--3-3-3-7-| (hold)
    E|----------------7--7--7--------------7--7-7-7-7--|-----------7-|
    
    Guitar 2
    E|-----------9-7-----|
    B|7-9-10-9-7------10-|
    G|-------------------|
    D|-------------------|
    A|-------------------|
    E|-------------------|
    
    Ending:
    (don't play on last time)
    E|-------------|------------|
    B|-------------|------------|
    G|5--5--5--5---|------------|
    D|5--5--5--5-7-|-7-7-7-7----| (X3)
    A|3--3--3--3-7-|-7-7-7-7----|
    E|-----------7-|-7-7-7-7----|
    

    Тональность:

    Нет текста!



    Назад
    Рекомендуем посмотреть другие песни исполнителя «Rasmus»:

    • Комментарии Facebook ()
    • Комментарии ВКонтакте



    Добавить в Избранное Браузера
    Сохранить здесь Очистить


    x

    0


    +
    -

    +
    -

    -

    Авторизация





    Зарегистрироваться

    M

    Дата и время

    • 01:32:17
       

    Социальные ссылки


    Наши приложения

    • Muzbank App Play Market
    • Muzbank Amazon App