MUZBANK



A Most Complete Bank Of Music Information

МУЗЫКАЛЬНО-ИНФОРМАЦИОННЫЙ БАНК

Поиск по сайту







    RRasmus • In My Life (аккорды и текст - chords & lyrics)


    263

    Print

    Видео «In My Life (Rasmus)»

    Видео клипы к песне подбираются автоматически сайтом youtube. Возможны некоторые несоответствия клипов песне.

    ↑ Спрятать рекламу ↑



    Download


    ------------------------------------------------------------|
    -3-3-3-3-|-3-3-3-3-|-3-3-3-3-|-5-5-5-5b-|-------------------|
    ---------|---------|---------|----------|-------------------|
    ---------|---------|---------|----------|-------------------|
    Intro 1st guitar:
    
    ---------|---------|---------|----------|-------------------|
    ---------|---------|---------|----------|-------------------|
    ---------|---------|---------|----------|-------------------|
    -5-3-3-3-|-3-3-3-3-|-3-3-3-3-|-5-5-5-5b-|-------------------|
    ---------|---------|---------|----------|-------------------|
    ---------|---------|---------|----------|-------------------|
    (4x)
    
    ---------|---------|---------|---------|---------------------|
    ---------|---------|---------|---------|---------------------|
    ---------|---------|---------|---------|---------------------|
    -5-3-3-3-|-3-3-3-3-|-3-3-3-3-|-5-5-----|---------------------|
    ---------|---------|---------|-5-5-----|---------------------|
    ---------|---------|---------|-3-3-----|---------------------|
    
    
    ---------|---------|---------|---------|---------------------|
    ---------|---------|---------|---------|---------------------|
    ---5-4---|-5---4-5-|---5-4---|-5---4-5-|---------------------|
    ---------|---------|---------|---------|---------------------|
    ---------|---------|---------|---------|---------------------|
    ---------|---------|---------|---------|---------------------|
    2nd guitar intro (00:09):
    
    ---------|---------|---------|---------|---------------------|
    ---5-3---|-----5-3-|---5-3---|-----3-5-|---------------------|
    ---5-4---|-5---4-5-|---5-4---|-5---4-5-|---------------------|
    ---------|---------|---------|---------|---------------------|
    ---------|---------|---------|---------|---------------------|
    ---------|---------|---------|---------|---------------------|
    (2x)
    
    ---------|---------|---------|---------|----------------------|
    ---5-3---|-----5-3-|---5-3---|---------|----------------------|
    ---5-4---|-5---4-5-|---5-4---|---------|----------------------|
    ---------|---------|---------|-5-5-----|----------------------|
    ---------|---------|---------|-5-5-----|----------------------|
    ---------|---------|---------|-3-3-----|----------------------|
    
    ---------|---------|---------|---------|----------------------|
    ---------|---------|---------|---------|----------------------|
    ---------|---------|---------|---------|----------------------|
    ---------|---------|---------|---------|----------------------|
    ---3-2---|-----3-2-|---3-2---|-----2-3-|----------------------|
    -5-------|-3-------|-1-------|-3-------|----------------------|
    Intro 2 (both guitars): (2x)
    
    ---------|---------|---------|---------|---------|---------|---------|-------|
    ---------|---------|---------|---------|---------|---------|---------|-------|
    ---------|---------|---------|---------|---------|---------|---------|-------|
    -6-6-6-6-|-6-6-6-6-|-6-6-6-6-|-6-6-6-6-|-7-7-7-7-|-7-7-7-7-|-7-7-7-7-|-7-7-7-|
    ---------|---------|---------|---------|---------|---------|---------|-------|
    ---------|---------|---------|---------|---------|---------|---------|-------|
    Verse 1: Part >ABB

    Тональность:

    Нет текста!



    Назад
    Рекомендуем посмотреть другие песни исполнителя «Rasmus»:

    • Комментарии Facebook ()
    • Комментарии ВКонтакте



    Добавить в Избранное Браузера
    Сохранить здесь Очистить


    x

    0


    +
    -

    +
    -

    -

    Авторизация





    Зарегистрироваться

    M

    Дата и время

    • 20:52:06
       

    Социальные ссылки


    Наши приложения

    • Muzbank App Play Market
    • Muzbank Amazon App