MUZBANK



A Most Complete Bank Of Music Information

МУЗЫКАЛЬНО-ИНФОРМАЦИОННЫЙ БАНК

Поиск по сайту







    RRasmus • In The Shadows (аккорды и текст - chords & lyrics)


    225

    Print

    Видео «In The Shadows (Rasmus)»

    Видео клипы к песне подбираются автоматически сайтом youtube. Возможны некоторые несоответствия клипов песне.

    ↑ Спрятать рекламу ↑



    Download



     
    
    
    Artist: The Rasmus
    Song: In the Shadows
     by Kate (ICQ Black Cat 343087258)
    
        Intro:
    
    E||-------------------------|-------------------------|
    B||-------------------------|-------------------------|
    G||-------------------------|-------------------------|
    D||-------------------------|--------------2----------|
    A||--5----5---5--7-5/-4-----|----------------------0--|
    E||----------------------5/-|--2----2---2----0--2-----|
    
    
    -------------------------|-----------------------|-------------------------|
    -------------------------|-----------------------|-------------------------|
    -------------------------|-----------------------|--7----7---7--9-7--6-----|
    --------------7----------|-----------------------|--7----7---7--9-7--6--7--|
    --2----4---5----5--4--0--|-----------------------|--5----5---5--7-5/-4--7--|
    -------------------------|--2--2--4--4--5--------|----------------------5--|
    
    
    -------------------------|-------------------------|-------------------------|
    -------------------------|-------------------------|-------------------------|
    --------------4-------2--|--4----6---7--9-7--6-----|--------------9----6-----|
    --4----4---4--4-2--4--2--|--4----6---7--9-7--6--7--|--4----6---7--9-7--6--7--|
    --4----4---4--2-2--4--0--|--2----4---5--7-5--4--7--|--4----6---7--7-7--4--7--|
    --2----2---2----0--2-----|----------------------5--|--2----4---5----5-----5--|
    
    
    -------------------------|-------------------------|-------------------------|
    -------------------------|-------------------------|-------------------------|
    --7----7---7--9-7--6-----|----------------------2--|--4----6---7--9-7--6-----|
    --7----7---7--9-7--6--7--|--4----4---4--x-2--4--2--|--4----6---7--9-7--6--7--|
    --5----5---5--7-5/-4--7--|--4----4---4--x-2--4--0--|--2----4---5--7-5--4--7--|
    ----------------------5--|--2----2---2--x-0--2-----|----------------------5--|
    
    
    ------------------------|
    ------------------------|
    ------------------------|
    --4----4---4--4-4--4----|
    --4----4---4--4-4--4----|
    --2----2---2--2-2--2----|
    
    
    Verse:
    
    ----------------------------------|
    ----------------------------------|
    ----------------------------------|
    ----------------------------------|
    --5-5-5-5-5-5-5-5-5-5-5-5-5-5-5-5-|
    ----------------------------------|
    
    
    ----------------------------------|----------------------------------| x6
    ----------------------------------|----------------------------------|
    ----------------------------------|----------------------------------|
    ----------------------------------|----------------------------------|
    --4-4-4-4-4-4-4-4-4-4-4-4-4-4-4-4-|--5-5-5-5-5-5-5-5-5-5-5-5-5-5-5-5-|
    ----------------------------------|----------------------------------|
    
    
    Chorus:
    
    ---------------------|-------------------|-------------------|
    ---------------------|-------------------|-------------------|
    ---------------------|--7----------------|-------------------|
    ----4---3---2--------|--7----------------|--4----------------|
    ----4---3---2--------|--5----------------|--4----------------|
    ----2---1---0--------|-------------------|--2----------------|
    
    
    -------------------|-------------------|-------------------|-------------------|
    -------------------|-------------------|-------------------|-------------------|
    --4----------------|-------------------|--7----------------|-------------------|
    --4----------------|--4----------------|--7----------------|--4----------------|
    --2----------------|--4----------------|--5----------------|--4----------------|
    -------------------|--2----------------|-------------------|--2----------------|
    
    
    -------------------|--------------------|-------------------------|
    -------------------|--------------------|-------------------------|
    --4----------------|--------------------|--7----7---7--9-7--6-----|
    --4----------------|--4--------2--------|--7----7---7--9-7--6--7--|
    --2----------------|--4--------2--------|--5----5---5--7-5/-4--7--|
    -------------------|--2--------0--------|----------------------5--|
    
    
    -------------------------|-------------------------|-------------------------|
    -------------------------|-------------------------|-------------------------|
    ----------------------2--|--4----6---7--9-7--6-----|--------------9----6-----|
    --4----4---4--x-2--4--2--|--4----6---7--9-7--6--7--|--4----6---7--9-7--6--7--|
    --4----4---4--x-2--4--0--|--2----4---5--7-5--4--7--|--4----6---7--7-7--4--7--|
    --2----2---2--x-0--2-----|----------------------5--|--2----4---5----5-----5--|
    
    
    -------------------------|-------------------------|-------------------------|
    -------------------------|-------------------------|-------------------------|
    --7----7---7--9-7--6-----|----------------------2--|--4----6---7--9-7--6--2--|
    --7----7---7--9-7--6--7--|--4----4---4--x-2--4--2--|--4----6---7--9-7--6--2--|
    --5----5---5--7-5/-4--7--|--4----4---4--x-2--4--0--|--2----4---5--7-5--4--0--|
    ----------------------5--|--2----2---2--x-0--2-----|-------------------------|
    
    
    -----------------------|------------------|
    -----------------------|------------------|
    -----------------------|------------------|
    --4--4--6--6--7--------|------------------|
    --4--4--6--6--7--------|------------------|
    --2--2--4--4--5/-------|------------------|
    
    
    Verse:
    
    ----------------------------------|----------------------------------|x6
    ----------------------------------|----------------------------------|
    ----------------------------------|----------------------------------|
    ----------------------------------|----------------------------------|
    --4-4-4-4-4-4-4-4-4-4-4-4-4-4-4-4-|--5-5-5-5-5-5-5-5-5-5-5-5-5-5-5-5-|
    ----------------------------------|----------------------------------|
    
    
     Chorus:
    
    |---------------------|-------------------|
    |---------------------|-------------------|
    |---------------------|--7----------------|
    |----4---3---2--------|--7----------------|
    |----4---3---2--------|--5----------------|
    |----2---1---0--------|-------------------|
    
    
    -------------------|-------------------|-------------------|-------------------|
    -------------------|-------------------|-------------------|-------------------|
    -------------------|--4----------------|-------------------|--7----------------|
    --4----------------|--4----------------|--4----------------|--7----------------|
    --4----------------|--2----------------|--4----------------|--5----------------|
    --2----------------|-------------------|--2----------------|-------------------|
    
    
    -------------------|-------------------|--------------------|
    -------------------|-------------------|--------------------|
    -------------------|--4----------------|--------------------|
    --4----------------|--4----------------|--4--------2--------|
    --4----------------|--2----------------|--4--------2--------|
    --2----------------|-------------------|--2--------0--------|
    
    
    --------------------|--------------------|--------------------|
    --------------------|--------------------|--------------------|
    --------------------|--------------------|--------------------|
    ------------4----4--|------------6----6--|------------7----7--|
    --------------------|--------------------|--------------------|
    --------------------|--------------------|--------------------|
    
    
    --------------------|--------------------|--------------------|
    --------------------|--------------------|--------------------|
    --------------------|--------------------|--------------------|
    --------------------|--------------------|--------------------|
    ------------4----4--|------------5----5--|------------7----7--|
    --------------------|--------------------|--------------------|
    
    
    --------------------|-----------------------------|-------------------|
    --------------------|-----------------------------|-------------------|
    --------------------|-----------------------------|--7----------------|
    --------------------|----4---3---2----------------|--7----------------|
    --------------------|----4---3---2----------------|--5----------------|
    ------------5----5--|----2---1---0----------------|-------------------|
    
    
    -------------------|-------------------|-------------------|-------------------|
    -------------------|-------------------|-------------------|-------------------|
    -------------------|--4----------------|-------------------|--7----------------|
    --4----------------|--4----------------|--4----------------|--7----------------|
    --4----------------|--2----------------|--4----------------|--5----------------|
    --2----------------|-------------------|--2----------------|-------------------|
    
    
    -------------------|-------------------|----------------------|
    -------------------|-------------------|----------------------|
    -------------------|--4----------------|----------------------|
    --4----------------|--4----------------|----------------------|
    --4----------------|--2----------------|-----------------4----|
    --2----------------|-------------------|--2----4----5---------|
    
    
    -------------------|-------------------|-------------------|-------------------|
    -------------------|-------------------|-------------------|-------------------|
    --7----------------|-------------------|--4----------------|-------------------|
    --7----------------|--4----------------|--4----------------|--4----------------|
    --5----------------|--4----------------|--2----------------|--4----------------|
    -------------------|--2----------------|-------------------|--2----------------|
    
    
    -------------------|-------------------|-------------------|
    -------------------|-------------------|-------------------|
    --7----------------|-------------------|--4----------------|
    --7----------------|--4----------------|--4----------------|
    --5----------------|--4----------------|--2----------------|
    -------------------|--2----------------|-------------------|
    
    
    --------------------|-------------------------|-------------------------|
    --------------------|-------------------------|-------------------------|
    --------------------|--7----7---7--9-7--6--2--|----------------------2--|
    --4--------2--------|--7----7---7--9-7--6--2--|--4----4---4--x-2--4--2--|
    --4--------2--------|--5----5---5--7-5/-4--0--|--4----4---4--x-2--4--0--|
    --2--------0--------|-------------------------|--2----2---2--x-0--2-----|
    
    
    -------------------------|-------------------------|-------------------------|
    -------------------------|-------------------------|-------------------------|
    --4----6---7--9-7--6--2--|--------------9----6-----|--7----7---7--9-7--6--2--|
    --4----6---7--9-7--6--2--|--4----6---7--9-7--6--7--|--7----7---7--9-7--6--2--|
    --2----4---5--7-5--4--0--|--4----6---7--7-7--4--7--|--5----5---5--7-5/-4--0--|
    -------------------------|--2----4---5----5-----5--|-------------------------|
    
    
    -------------------------|-------------------------|------------------------|
    -------------------------|-------------------------|------------------------|
    ----------------------2--|--4----6---7--9-7--6--2--|---------------------6--|
    --4----4---4--x-2--4--2--|--4----6---7--9-7--6--2--|--4----4---4--x-2----6--|
    --4----4---4--x-2--4--0--|--2----4---5--7-5--4--0--|--4----4---4--x-2----4--|
    --2----2---2--x-0--2-----|-------------------------|--2----2---2--x-0-------|
    
    
    -------------------|------------------||
    -------------------|------------------||
    --7----------------|------------------||
    --7----------------|------------------||
    --5----------------|------------------||
    -------------------|------------------||
    
    Enjoy playing!
     

    Тональность:

    Нет текста!



    Назад
    Рекомендуем посмотреть другие песни исполнителя «Rasmus»:

    • Комментарии Facebook ()
    • Комментарии ВКонтакте



    Добавить в Избранное Браузера
    Сохранить здесь Очистить


    x

    0


    +
    -

    +
    -

    -

    Авторизация





    Зарегистрироваться

    M

    Дата и время

    • 12:04:34
       

    Социальные ссылки


    Наши приложения

    • Muzbank App Play Market
    • Muzbank Amazon App