MUZBANK



A Most Complete Bank Of Music Information

МУЗЫКАЛЬНО-ИНФОРМАЦИОННЫЙ БАНК

Поиск по сайту







    РРахманинов Сергей Васильевич • Прелюдия в С#m (Ор. 3, №2) (аккорды и текст - chords & lyrics)


    389

    Print

    Видео «Прелюдия в С#m (Ор. 3, №2) (Рахманинов Сергей Васильевич)»

    Видео клипы к песне подбираются автоматически сайтом youtube. Возможны некоторые несоответствия клипов песне.

    ↑ Спрятать рекламу ↑



    Download


    E|---------------------|---|------------------------|
    B|---------------------|---|----5--8--7-----6-----4-|
    G|-------------5-----4-|---|----4--7--6--5--5--4--2-|
    D|---------------------|-2-|----2--5--4-----3-----1-|
    A|-------------3-----2-|---|-------------3-----2----|
    E|---------------------|-0-|----3--7--6-----5-----2-|
    
    E|-------------------------|-------7--5---------------|
    B|----5--8--7-----6-----4--|----5--5--5-----8-----7---|
    G|----4--7--6--5--5--4--2--|----4--4--2--8--7--7--5---|
    D|-2--2--5--4-----3-----1--|-2--2-----------5-----4---|
    A|-------------3-----2-----|-------5--3--6-----5--3---|
    E|-0--3--7--6-----5-----2--|-0--3-----------8---------|
    
    E|------10--8-----7-----6-|
    B|----8--8--8--8--5--7--5-|
    G|-0--7--7--5-----4-----3-|
    D|----5--------5-----4----|
    A|-------8--7-----4-----4-|
    E|-3--7-------------------|
    
    E|-------------------------|--------------------------|
    B|---12-13-10-12--8-10--7--|-8--8-10--7--8--5--7--4---|
    G|---11-12--9-11--7--9--5--|-7--7--9--5--7--4--5--2---|
    D|-9--9-10--7--9--5--7--4--|-5--5--7--4--5--2--4--1---|
    A|-------------------------|--------------------------|
    E|-7-10-12--8-10--7--8--5--|-7--7--8--5--7--3--5--2---|
    
    E|------------------------|
    B|-5--5--8--7-----6-----4-|
    G|-4--4--7--6--5--5--4--2-|
    D|-2--2--5--4-----3-----1-|
    A|-------------3-----2----|
    E|-3--3--7--6-----5-----2-|
    
    E|-------7--5--------------|-------------------------|
    B|----5--5--5-----8-----4--|----5--6--3--5-----3-----|
    G|----4--4--2--5--7--4--2--|----4--5--2--4--5--2--4--|
    D|-2--2-----------5-----1--|-2--2--3--0--2--5--0--3--|
    A|-------5--3--3-----2-----|----------------3-----5--|
    E|-0--3-----------5-----2--|-0--3--5--1--3--0--1--7--|
    
    E|------------------------|
    B|-------5--3-----1-----4-|
    G|-5--5--2--2--3--0--4--2-|
    D|-5--5--2--0-----2-----4-|
    A|-3--3--------1--3--2--2-|
    E|-0--0--3--1-----3-----2-|
    
    E|----0--3--2-----1--------|----0--3--2-----1--------|
    B|-------------1--4-----4--|-------------1--4-----4--|
    G|----0--4--3-----2--4--2--|----0--4--3-----2--4--2--|
    D|-2-----0--------------4--|-2-----0--------------4--|
    A|----2-----4--3-----2-----|----2-----4--3-----2-----|
    E|-0-----------------------|-0-----------------------|
    
    E|-3---0-2---0-1-----0-----|
    B|---0-------------4-----0-|
    G|---------3-----2-----0---|
    D|-------------------------|
    A|-------4-----3-----2-----|
    E|-0-----------------------|
    
    E|-3---0-2---0-1-----0-----|-7-----5-----8-----7-----|
    B|---0-------------4-----0-|-----5-----5-----5-----5-|
    G|---------3-----2-----0---|---4-----5-----------4---|
    D|-0-----------------------|---------------7---------|
    A|-------4-----3-----2-----|-------------0-----------|
    E|-0-----------------------|-3-----2-----------3-----|
    
    E|-5---3-5-----3---2-3-----|
    B|-----------5-----4-----0-|
    G|---2-----2-----2-----0---|
    D|-------------------------|
    A|-3-----------2-----------|
    E|-------2-----------0-----|
    
    E|-3---0-2---0-1-----0-----|-3---0-2---0-1-----0-----|
    B|---0-------------4-----0-|---0-------------4-----0-|
    G|---------3-----2-----0---|---------3-----2-----0---|
    D|-0-----------------------|-0-----------------------|
    A|-------4-----3-----2-----|-------4-----3-----2-----|
    E|-------------------------|-0-----------------------|
    
    E|-7-----5-----8-----7-----|
    B|-----5-----5-----5-----5-|
    G|---4-----5-----------4---|
    D|---------------7---------|
    A|-------------0-----------|
    E|-3-----2-----------3-----|
    
    E|12---8-10----13----12----|-5---2-3---0-1-----0-----|
    B|-----------13----12----10|---------0-------3-----1-|
    G|---9-----10----10-----9--|---5---0-------1-----2---|
    D|-------------------------|-4-----2-----0-----2-----|
    A|10-----12----11----10----|-------------2-----3-----|
    E|-8-----------------------|-------------------------|
    
    E|-1-----0-----------------|
    B|-----3-----1-3---0-1-----|
    G|---1-----2-------------2-|
    D|-0-----2-------3-----2---|
    A|-2-----3-----2-----0-----|
    E|-------------4-----------|
    
    E|-------------------------|-------------------------|
    B|-1-----0-----0-----------|-------1-----------2-----|
    G|-----2-----0-------0-----|-------------------------|
    D|---1-----2-------4-----2-|-3---2-3---2-4---2-4---2-|
    A|-0-----2-------3-----2---|-0-3-----3---1-4-----4---|
    E|-2-----3-----2-----3-----|-------------------------|
    
    E|-------------------0-----|
    B|-------3-----4-----------|
    G|-0-----0---------2-----0-|
    D|---0^4---0^4---1-----2---|
    A|-2-----------------------|
    E|-------------2-----0-----|
    
    E|-3---0-2---0-1-----0-----|-3---0-2---0-1-----0-----|
    B|---0-------------4-----0-|---0-------------4-----0-|
    G|---------3-----2-----0---|---------3-----2-----0---|
    D|-0-----------------------|-0-----------------------|
    A|-------4-----3-----2-----|-------4-----3-----2-----|
    E|-0-----------------------|-0-----------------------|
    
    E|-7-----5-----8-----7-----|
    B|-----5-----5-----5-----5-|
    G|---4-----5-----------4---|
    D|---------------7---------|
    A|-------------0-----------|
    E|-3-----2-----------3-----|
    
    E|-5---3-5-----3---2-3-----|-3---0-2---0-1-----0-----|
    B|-----------5-----4-----0-|---0-------------4-----0-|
    G|---2-----2-----2-----0---|---------3-----2-----0---|
    D|-------------------------|-0-----------------------|
    A|-3-----------2-----------|-------4-----3-----2-----|
    E|-------2-----------0-----|-0-----------------------|
    
    E|-3---0-2---0-1-----0-----|
    B|---0-------------4-----0-|
    G|---------3-----2-----0---|
    D|-0-----------------------|
    A|-------4-----3-----2-----|
    E|-0-----------------------|
    
    E|-7-----5-----8-----7-----|10-----8-----1-----0-----|
    B|-----5-----5-----5-----5-|----12----10-----3-----1-|
    G|---4-----5-----------4---|--10-----9-----1-----2---|
    D|---------------7---------|-------------------------|
    A|-------------0-----------|11-----0-----2-----3-----|
    E|-3-----2-----------3-----|-------------------------|
    
    E|-5-----3-----8---8---7---|
    B|-----7-----5-10--10--8---|
    G|---5-----4---8---8---9---|
    D|-------2-----------------|
    A|-6-------------9--10--10-|
    E|-------------------------|
    
    E|-5---5---3---1---1---0---|-------------------------|
    B|-7---7---5---3---3---1---|-3---3---1---1---1---0---|
    G|-5---5---4---1---1---2---|-4---4---2---2---2---0---|
    D|-------2---2-------------|-3---3---2---1---1---2---|
    A|---6-----------2---3---3-|-------0---0-------------|
    E|-------------------------|---4-----------2---3---3-|
    
    E|-------------------------|
    B|-------------1---1---0---|
    G|-2---2---0---2---2---0---|
    D|-4---4---2---1---1---2---|
    A|-3---3---2---------------|
    E|---2---3---3---2---3---3-|
    
    E|-------------------------|-------------------------|
    B|-------------------------|-------------------------|
    G|-2---2---0---2---2---0---|-2---2---0---2---2---0---|
    D|-4---4---2---4---4---2---|-4---4---2---4---4---2---|
    A|-3---3---2---3---3---2---|-3---3---2---3---3---2---|
    E|---2---0---0---2---0---0-|---2---0---0---2---0---0-|
    
    E|-------5-----------7-|
    B|-------5-----------7-|
    G|-5-----------------8-|
    D|-------7-----9-----7-|
    A|-3-----7-------------|
    E|-------------7-------|
    
    E|-------------------------|-------------------------|
    B|----5--8--7-----6-----4--|----5--8--7-----6-----4--|
    G|----4--7--6--5--5--4--2--|----4--7--6--5--5--4--2--|
    D|-2--2--5--4-----3-----1--|-2--2--5--4-----3-----1--|
    A|-2-----------3-----2-----|-2-----------3-----2-----|
    E|-0--3--7--6-----5-----2--|-0--3--7--6-----5-----2--|
    
    E|-------7--5-------------|
    B|----5--5--5-----8-----7-|
    G|----4--4--2--8--7--7--5-|
    D|-2--2-----------5-----4-|
    A|-2-----5--3--6-----5--3-|
    E|-0--3-----------8-------|
    
    E|------10--8-----7-----6--|-------------------------|
    B|----8--8--8--8--5--7--5--|---12-13-10-12--8-10--7--|
    G|-0--7--7--5-----4-----3--|---11-12--9-11--7--9--5--|
    D|-0--5--------5-----4-----|-9--9-10--7--9--5--7--4--|
    A|-2-----8--7-----4-----4--|-9-----------------------|
    E|-3--7--------------------|-7-10-12--8-10--7--8--5--|
    
    E|------------------------|
    B|-8--8-10--7--8--5--7--4-|
    G|-7--7--9--5--7--4--5--2-|
    D|-5--5--7--4--5--2--4--1-|
    A|------------------------|
    E|-7--7--8--5--7--3--5--2-|
    
    E|-------------------------|-------7--5--------------|
    B|-5--5--8--7-----6-----4--|----5--5--5-----8-----4--|
    G|-4--4--7--6--5--5--4--2--|----4--4--2--5--7--4--2--|
    D|-2--2--5--4-----3-----1--|-2--2-----------5-----1--|
    A|-------------3-----2-----|-2-----5--3--3-----2-----|
    E|-0--3--7--6-----5-----2--|-0--3-----------5-----2--|
    
    E|------------------------|
    B|-5--5--6--3--5-----3----|
    G|-4--4--5--2--4--5--2--4-|
    D|-2--2--3--0--2--5--0--3-|
    A|----------------3-----5-|
    E|-0--3--5--1--3--0--1--7-|
    
    E|-------------------------|----0-----------0-|----0---------0-|
    B|-------5--3-----1-----4--|----1-----------0-|----1---------2-|
    G|-5--5--2--2--3--0--4--2--|------------------|--------------0-|
    D|-5--5--2--0-----2-----4--|-2--2--------2--2-|-2--2------2--2-|
    A|-3--3--------1--3--2--2--|----3-----------4-|----2---------0-|
    E|-0--0--3--1-----3-----2--|-0--3--------0--3-|-0--3------0--3-|
    
    E|----0--------------0--7--|-7-|
    B|----1--------------0--5--|-5-|
    G|----2--------------0--4--|-4-|
    D|-2--2--------2-----2--5--|-5-|
    A|----0--------------2-----|---|
    E|-0--1--------0--------0--|-0-|
    

    Тональность:

    Нет текста!



    Назад

    • Комментарии Facebook ()
    • Комментарии ВКонтакте



    Добавить в Избранное Браузера
    Сохранить здесь Очистить


    x

    0


    +
    -

    +
    -

    -

    Авторизация





    Зарегистрироваться

    M

    Дата и время

    • 04:58:47
       

    Социальные ссылки


    Наши приложения

    • Muzbank App Play Market
    • Muzbank Amazon App