MUZBANK



A Most Complete Bank Of Music Information

МУЗЫКАЛЬНО-ИНФОРМАЦИОННЫЙ БАНК

Поиск по сайту







    RRed Hot Chili Peppers • Around The World (аккорды и текст - chords & lyrics)


    425

    Print

    Видео «Around The World (Red Hot Chili Peppers)»

    Видео клипы к песне подбираются автоматически сайтом youtube. Возможны некоторые несоответствия клипов песне.

    ↑ Спрятать рекламу ↑



    Download



        flea w/fuzz pedal
        E5
    e|---------------|
    B|---------------|
    G|---------------|
    D|-2-(2)---------|
    A|-------2-2-2-2-|
    E|-0-(0)-0-0-0-0-|
    
        flea
        E5
    e|-------------------------------------------------------------|
    B|-------------------------------------------------------------|
    G|-------------------------------------------------------------|
    D|-12h14-14-14-12h14-14-14-12h14-14-14-12h14-14-12-------------|
    A|-------------------------------------------------14-13-12-10-|
    E|-------------------------------------------------------------|
    
        flea
        E5
    e|-------------------------------------------------------------|
    B|-------------------------------------------------------------|
    G|-------------------------------------------------------------|
    D|-12h14-14-14-12h14-14-14-12h14-14-14-12h14-12----------------|
    A|----------------------------------------------14-13-12-------|
    E|-------------------------------------------------------15-12-|
    
        John w/distortion
    e|--/12-12-12--/12-12-12--/12-12-12--/12-12-12-12-12-12-12-|
    B|--/12-12-12--/12-12-12--/12-12-12--/12-12-12-12-12-12-12-|
    G|--/-9--------/-9--------/-9--------/-9--------9--9--9--9-|
    D|---------------------------------------------------------| x6
    A|---------------------------------------------------------|
    E|---------------------------------------------------------|
    
          John (verse) [clean guitar]
          G5
    e|-----------------------------------|
    B|-----------------------------------|
    G|-----------------------------------|
    D|------3-5-3-5-3-5-------3-5-3-5----|
    A|----5-----------------5------------|
    E|-----------------------------------|
    
         Flea (verse) [pop bass]
         G5                              G5
    e|------------------------------|------------------------------|
    B|------------------------------|------------------------------|
    G|------------------------------|------------------------------|
    D|---------3-----5--------2--3--|--------3----5---------3-2----|
    A|------------------------------|---------------------------5--|
    E|--3----------------3--3-------|---3-------------3--3---------|
    
    e|-------------------------------------------------------------|
    B|-------------------------------------------------------------|
    G|-------------------------------------------------------------|
    D|----------3-----5-----------2--3-----------3--5--------------|
    A|--------------------------------------------------3~~---1~~--|
    E|-----3----------------3--3-----------3-----------------------|
    ---
    Lyrics:
    
    Around The World
    
    All around the world
    We could make time
    Rompin' and a stompin'
    'cause I'm in my prime
    
    Born in the north
    And sworn to entertain ya
    'cause I'm down for
    The state of Pennsylvania
    
    I try not to whine
    But I must warn ya
    'Bout the girls
    >From California
    
    Alabama baby
    Said hallelujah
    Good god girl
    I wish I knew ya
    
    I know I know for sure
    That life is beautiful around the world
    I know I know it's you
    You say hello and then I say I do
    
    Come back baby
    'Cause I'd like to say
    I've been around the world
    Back from Bombay
    
    Fox hole love
    Pie in your face
    Living in and out
    Of a big fat suitcase
    
    Bonafide ride
    Step aside my Johnson
    Yes I could
    In the woods of Wisconsin
    
    Wake up the cake
    It's a lake she's kissin' me
    As they do when
    When they do in Sicily
    
    I know I know for sure
    That life is beautiful around the world
    I know I know it's you
    You say hello and then I say I do
    
    Where you want to go
    Who you want to be
    What you want to do
    Just come with me
    
    I saw God
    And I saw the fountains
    You and me girl
    Sittin' in the Swiss mountains
    
    Me Oh My O
    Me and Guy O
    Freer than a bird
    'Cause we're rockin' Ohio
    
    Around the world
    I feel dutiful
    Take a wife
    'Cause life is beautiful
    
    I know I know for sure
    (then some crazy stuff)
    I know I know it's you
    (more crazy chinese sounding nonsense)
    
    Mother Russia do not suffer
    I know you're bold enough
    I've been around the world
    And I have seen your love
    I know I know it's you
    
    You say hello then I say I do
    

    Тональность:

    Нет текста!



    Назад
    Рекомендуем посмотреть другие песни исполнителя «Red Hot Chili Peppers»:

    • Комментарии Facebook ()
    • Комментарии ВКонтакте



    Добавить в Избранное Браузера
    Сохранить здесь Очистить


    x

    0


    +
    -

    +
    -

    -

    Авторизация





    Зарегистрироваться

    M

    Дата и время

    • 19:21:04
       

    Социальные ссылки


    Наши приложения

    • Muzbank App Play Market
    • Muzbank Amazon App