MUZBANK



A Most Complete Bank Of Music Information

МУЗЫКАЛЬНО-ИНФОРМАЦИОННЫЙ БАНК

Поиск по сайту







    RRed Hot Chili Peppers • Blood Sugar Sex Magik (аккорды и текст - chords & lyrics)


    252

    Print

    Видео «Blood Sugar Sex Magik (Red Hot Chili Peppers)»

    Видео клипы к песне подбираются автоматически сайтом youtube. Возможны некоторые несоответствия клипов песне.

    ↑ Спрятать рекламу ↑



    Download



    G|---------------------------------------------------------|
    D|----10-12(h)14-10(h)12-----------------9-10(h)12-9(h)10--|
    A|-12--------------------10(h)12-XXXX-12-------------------|
    E|---------------------------------------------------------|
    
    E|------------|
    B|------------|
    G|9(h)10-XXXX-|
    D|------------|
    
    Verse: ** Same as intro 4 Times also
    
    Chorus: ** 4 times
    
    G|--------------------7----------------------------------------|
    D|------------------------9--8(p)7--5--------------------------|
    A|----------7--5--7----------------------------7--5--7-----4-5-|
    E|0--0-0--------------------------------0--0-0---------3-5-----|
    
    Interlude: **Once
    
    G|---------------------------------------|
    D|---------------------------------------|
    A|---------------------------------------|
    E|-0--0--0--0--0--0--0--0--2--2--2--2--2-|
    
    Interlude:
    During Guitar Solo:
    ** 3 Times
    G|---------------------------------------------------|
    D|---------------------------------------------------|
    A|-3--3--3--X-3--0-3--0-3-0-5--5--5--X-5--0-5--0-5-0-|
    E|---------------------------------------------------|
    
    ** 4 Time, Do this:
    
    G|--------------------------------------------------|
    D|--------------------------------------------------|
    A|-3--3--3--X-3--0-3--0-3-0-5--5--5--5-0-6--6--6--6-|
    E|--------------------------------------------------|
    
    Ending:
    Hold Note:
    G|---|
    D|---|
    A|---|
    E|-0-|
    

    Тональность:

    Нет текста!



    Назад
    Рекомендуем посмотреть другие песни исполнителя «Red Hot Chili Peppers»:

    • Комментарии Facebook ()
    • Комментарии ВКонтакте



    Добавить в Избранное Браузера
    Сохранить здесь Очистить


    x

    0


    +
    -

    +
    -

    -

    Авторизация





    Зарегистрироваться

    M

    Дата и время

    • 03:37:17
       

    Социальные ссылки


    Наши приложения

    • Muzbank App Play Market
    • Muzbank Amazon App