MUZBANK



A Most Complete Bank Of Music Information

МУЗЫКАЛЬНО-ИНФОРМАЦИОННЫЙ БАНК

Поиск по сайту







    RRed Hot Chili Peppers • By The Way (аккорды и текст - chords & lyrics)


    178

    Print

    Видео «By The Way (Red Hot Chili Peppers)»

    Видео клипы к песне подбираются автоматически сайтом youtube. Возможны некоторые несоответствия клипов песне.

    ↑ Спрятать рекламу ↑



    Download



     
    
    
    G --------------------------------------------------------------
    D |-10-10-10-10-10-10-10-10-10-10-10-10-10-10-10-10-------------------------
    A |-8--8--8--8--8--8--8--8--7--7--7--7--7--7--7--7--7--7--7--7--7--7--7--7--
    E --------------------------------------5--5--5--5--5--5--5--5--
    
    G --------------------------------------------------------------
    D --------------10-10-10-10-10-10-10-10-10-10-10-10-10-10-10-10-
    A |-7--7--7--7--7--7--7--7--8--8--8--8--8--8--8--8--7--7--7--7--7--7--7--7--
    E |-5--5--5--5--5--5--5--5--------------------------------------------------
                                Standing in line to see the show tonight and thereґs
    
    G --------------------------------------------------------------
    D |-10-10-10-10-10-10-10-10-10-10-10-10-14-14-12-12-10-10-10-10-10-10-10-10-
    A |-7--7--7--7--7--7--7--7--7--7--7--7--12-12-10-10-8--8--8--8--8--8--8--8--
    E --------------------------------------------------------------
        a light of                 heavy glow           by the way 
    
    G -------------------------------------------------------------
    D |-10-10-10-10-10-10-10-10-2--2--2--2--2--2--2--2--2--2--2--2--2--2--2--2/
    A |-7--7--7--7--7--7--7--7--0--0--0--0--0--0--0--0--0--0--0--0--0--0--0--0/
    E -------------------------------------------------------------
        I tried to say          Iґd be there                   waiting for 
    
    G ---------------9--9--9--9--9--9--9--9--9--9--9--9--9--9--9--9
    D |-/10-10-10-10-10-10-10-10-10-10-10-10-10-10-10-10-7--7--7--7--7--7--7--7
    A |-/8--8--8--8--8--8--8--8--7--7--7--7--7--7--7--7--7--7--7--7--7--7--7--7
    E -------------------------------------------------------------
        Daniґs the girl     is singing songs to me  beneath the marquee 
    
    G |-9--9--9--9--9--9--9--9--
    D |-7--7--7--7--7--7--7--7--
    A |-7--7--7--7--7--7--7--7--
    E --------------
                overload 
    
    E |-x--x--x--x--x--x--x--x--x--x--x--x--x--x--x--x--x--x--x--x--x--x-
    B |-x--x--x--x--x--x--x--x--x--x--x--x--x--x--x--x--x--x--x--x--x--x-
    G |-x--x--x--x--x--x--x--x--x--x--x--x--x--x--x--x--x--x--x--x--x--x-
    D |-x--x--x--x--x--x--x--x--x--x--x--x--x--x--x--x--x--x--x--x--x--x-
    A |-x--x--x--x--x--x--x--x--x--x--x--x--x--x--x--x--x--x--x--x--x--x-
    E |-x--x--x--x--x--x--x--x--x--x--x--x--x--x--x--x--x--x--x--x--x--x-
                                steak knife                   card shark 
    
    
    E |-x--x--x--x--x--x--x--x--x--x--x--x--x--8--8--8--8--8--8--8-------
    B |-x--x--x--x--x--x--x--x--x--x--x--x--x--8--8--8--8--8--8--8-------
    G |-x--x--x--x--x--x--x--x--x--x--x--x--x-----------------------7--7-
    D |-x--x--x--x--x--x--x--x--x--x--x--x--x-----------------------7--7-
    A |-x--x--x--x--x--x--x--x--x--x--x--x--x-----------------------5--5-
    E |-x--x--x--x--x--x--x--x--x--x--x--x--x----------------------------
               con job               boot cut                      Skin that
    
    
    E |-x--x--x--x--x--x--x--x--x--x--x--x--------x--x--x--x--x--x--x--x-
    B |-x--x--x--x--x--x--x--x--x--x--x--x--------x--x--x--x--x--x--x--x-
    G |-x--x--x--x--x--x--x--x--x--x--x--x--7--7--x--x--x--x--x--x--x--x-
    D |-x--x--x--x--x--x--x--x--x--x--x--x--7--7--x--x--x--x--x--x--x--x-
    A |-x--x--x--x--x--x--x--x--x--x--x--x--5--5--x--x--x--x--x--x--x--x-
    E |-x--x--x--x--x--x--x--x--x--x--x--x--------x--x--x--x--x--x--x--x-
        flick sheґs such a little DJ        to get there quick by street but not
    
    
    E |-x--x--x--x--------x--x--x--x--x--x--x--x--x--x--x--------x--x--x-
    B |-x--x--x--x--------x--x--x--x--x--x--x--x--x--x--x--------x--x--x-
    G |-x--x--x--x--7--7--x--x--x--x--x--x--x--x--x--x--x--7--7--x--x--x-
    D |-x--x--x--x--7--7--x--x--x--x--x--x--x--x--x--x--x--7--7--x--x--x-
    A |-x--x--x--x--5--5--x--x--x--x--x--x--x--x--x--x--x--5--5--x--x--x-
    E |-x--x--x--x--------x--x--x--x--x--x--x--x--x--x--x--------x--x--x-
        the freeway turn that trick                        to make a little leeway 
    
    
    E |-8--8--8--8--8--8--8--------x--x--x--x--x--x--x--x--x--x--x--x----
    B |-8--8--8--8--8--8--8--------x--x--x--x--x--x--x--x--x--x--x--x----
    G -----------7--7--x--x--x--x--x--x--x--x--x--x--x--x--7-
    D -----------7--7--x--x--x--x--x--x--x--x--x--x--x--x--7-
    A -----------5--5--x--x--x--x--x--x--x--x--x--x--x--x--5-
    E -----------------x--x--x--x--x--x--x--x--x--x--x--x----
                             beat that nic 
    
    
    E |----x--x--x--x--x--x--x--x--x--x--x--x--------x--x--x--x--x--x--x-
    B |----x--x--x--x--x--x--x--x--x--x--x--x--------x--x--x--x--x--x--x-
    G |-7--x--x--x--x--x--x--x--x--x--x--x--x--7--7--x--x--x--x--x--x--x-
    D |-7--x--x--x--x--x--x--x--x--x--x--x--x--7--7--x--x--x--x--x--x--x-
    A |-5--x--x--x--x--x--x--x--x--x--x--x--x--5--5--x--x--x--x--x--x--x-
    E |----x--x--x--x--x--x--x--x--x--x--x--x--------x--x--x--x--x--x--x-
        but not the way that we play 
    
    E |-x--x--x--x--x--x--x--x--x--x--x--x--x--x--x--x--x--x--x--x--x--x-
    B |-x--x--x--x--x--x--x--x--x--x--x--x--x--x--x--x--x--x--x--x--x--x-
    G |-x--x--x--x--x--x--x--x--x--x--x--x--x--x--x--x--x--x--x--x--x--x-
    D |-x--x--x--x--x--x--x--x--x--x--x--x--x--x--x--x--x--x--x--x--x--x-
    A |-x--x--x--x--x--x--x--x--x--x--x--x--x--x--x--x--x--x--x--x--x--x-
    E |-x--x--x--x--x--x--x--x--x--x--x--x--x--x--x--x--x--x--x--x--x--x-
        dogtown                       blood bath              rib cage 
    
    E |-x--x--x--x-------------------------------------------------------
    B |-x--x--x--x-------------------------------------------------------
    G |-x--x--x--x--7--7--7--7--7--7--7--7--7--7--7--7-------------------
    D |-x--x--x--x--7--7--7--7--7--7--7--7--7--7--7--7-------------------
    A |-x--x--x--x--5--5--5--5--5--5--5--5--5--5--5--5-------------------
    E |-x--x--x--x-------------------------------------------------------
        soft tal 
    
    
    E |-1--1--1--1--1--1--1--1--------------------------5--5--5--5--5--5-
    B |-1--1--1--1--1--1--1--1--------------------------6--6--6--6--6--6-
    G |-2--2--2--2--2--2--2--2--5--5--5--5--5--5--5--5--7--7--7--7--7--7-
    D |-3--3--3--3--3--3--3--3--5--5--5--5--5--5--5--5--7--7--7--7--7--7-
    A |-3--3--3--3--3--3--3--3--3--3--3--3--3--3--3--3--5--5--5--5--5--5-
    E |-1--1--1--1--1--1--1--1-------------------------------------------
        Standing in line to see the show tonight and thereґs a light on 
    
    
    E |-5--5--5--5--5--5--5--5--5--5--1--1--1--1--1--1--1--1-------------
    B |-6--6--6--6--6--6--6--6--6--6--1--1--1--1--1--1--1--1-------------
    G |-7--7--7--7--7--7--7--7--7--7--2--2--2--2--2--2--2--2--5--5--5--5-
    D |-7--7--7--7--7--7--7--7--7--7--3--3--3--3--3--3--3--3--5--5--5--5-
    A |-5--5--5--5--5--5--5--5--5--5--3--3--3--3--3--3--3--3--3--3--3--3-
    E --------------------1--1--1--1--1--1--1--1-------------
                       heavy glow     by the way I           tried to say 
    
    
    E --5--5--5--5--5--5--5--5--6--6--6--6--6--6--6--6-------
    B --5--5--5--5--5--5--5--5--6--6--6--6--6--6--6--6-------
    G |-5--5--5--5--5--5--5--5--5--5--5--5--7--7--7--7--7--7--7--7-------
    D |-5--5--5--5--7--7--7--7--7--7--7--7--8--8--8--8--8--8--8--8-------
    A |-3--3--3--3--7--7--7--7--7--7--7--7--8--8--8--8--8--8--8--8-------
    E --5--5--5--5--5--5--5--5--6--6--6--6--6--6--6--6-------
                    Iґd be there            waiting for  ..........
    
    
    E -------------------------------------------------------
    B -------------------------------------------------------
    G -------------------------------------------------------
    D -------------------------------------------------------
    A -------------------------------------------------------
    E |b10b10b10b10b10b10b10b10b10b10b10b10b10b10b10b10------------------
    
    
    
    E |-x--x--x--x--x--x--x--x--x--x--x--x--x--x--x--x--x--x--x--x--x--x-
    B |-x--x--x--x--x--x--x--x--x--x--x--x--x--x--x--x--x--x--x--x--x--x-
    G |-x--x--x--x--x--x--x--x--x--x--x--x--x--x--x--x--x--x--x--x--x--x-
    D |-x--x--x--x--x--x--x--x--x--x--x--x--x--x--x--x--x--x--x--x--x--x-
    A |-x--x--x--x--x--x--x--x--x--x--x--x--x--x--x--x--x--x--x--x--x--x-
    E |-x--x--x--x--x--x--x--x--x--x--x--x--x--x--x--x--x--x--x--x--x--x-
    
    
    
    E |-x--x--x--x--x--x--x--x--x--x--x--x--x--8--8--8--8--8--8--8-------
    B |-x--x--x--x--x--x--x--x--x--x--x--x--x--8--8--8--8--8--8--8-------
    G |-x--x--x--x--x--x--x--x--x--x--x--x--x-----------------------7--7-
    D |-x--x--x--x--x--x--x--x--x--x--x--x--x-----------------------7--7-
    A |-x--x--x--x--x--x--x--x--x--x--x--x--x-----------------------5--5-
    E |-x--x--x--x--x--x--x--x--x--x--x--x--x----------------------------
    
    
    
    E |-x--x--x--x--x--x--x--x--x--x--x--x--------x--x--x--x--x--x--x--x-
    B |-x--x--x--x--x--x--x--x--x--x--x--x--------x--x--x--x--x--x--x--x-
    G |-x--x--x--x--x--x--x--x--x--x--x--x--7--7--x--x--x--x--x--x--x--x-
    D |-x--x--x--x--x--x--x--x--x--x--x--x--7--7--x--x--x--x--x--x--x--x-
    A |-x--x--x--x--x--x--x--x--x--x--x--x--5--5--x--x--x--x--x--x--x--x-
    E |-x--x--x--x--x--x--x--x--x--x--x--x--------x--x--x--x--x--x--x--x-
    
    
    
    E |-x--x--x--x--------x--x--x--x--x--x--x--x--x--x--x--------x--x--x-
    B |-x--x--x--x--------x--x--x--x--x--x--x--x--x--x--x--------x--x--x-
    G |-x--x--x--x--7--7--x--x--x--x--x--x--x--x--x--x--x--7--7--x--x--x-
    D |-x--x--x--x--7--7--x--x--x--x--x--x--x--x--x--x--x--7--7--x--x--x-
    A |-x--x--x--x--5--5--x--x--x--x--x--x--x--x--x--x--x--5--5--x--x--x-
    E |-x--x--x--x--------x--x--x--x--x--x--x--x--x--x--x--------x--x--x-
    
    
    
    E |-8--8--8--8--8--8--8--------x--x--x--x--x--x--x--x--x--x--x--x----
    B |-8--8--8--8--8--8--8--------x--x--x--x--x--x--x--x--x--x--x--x----
    G -----------7--7--x--x--x--x--x--x--x--x--x--x--x--x--7-
    D -----------7--7--x--x--x--x--x--x--x--x--x--x--x--x--7-
    A -----------5--5--x--x--x--x--x--x--x--x--x--x--x--x--5-
    E -----------------x--x--x--x--x--x--x--x--x--x--x--x----
    
    
    
    E |----x--x--x--x--x--x--x--x--x--x--x--x--------x--x--x--x--x--x--x-
    B |----x--x--x--x--x--x--x--x--x--x--x--x--------x--x--x--x--x--x--x-
    G |-7--x--x--x--x--x--x--x--x--x--x--x--x--7--7--x--x--x--x--x--x--x-
    D |-7--x--x--x--x--x--x--x--x--x--x--x--x--7--7--x--x--x--x--x--x--x-
    A |-5--x--x--x--x--x--x--x--x--x--x--x--x--5--5--x--x--x--x--x--x--x-
    E |----x--x--x--x--x--x--x--x--x--x--x--x--------x--x--x--x--x--x--x-
    
    
    
    E |-x--x--x--x-------------------------------------------------------
    B |-x--x--x--x-------------------------------------------------------
    G |-x--x--x--x--7--7--7--7--7--7--7--7--7--7--7--7-------------------
    D |-x--x--x--x--7--7--7--7--7--7--7--7--7--7--7--7-------------------
    A |-x--x--x--x--5--5--5--5--5--5--5--5--5--5--5--5-------------------
    E |-x--x--x--x-------------------------------------------------------
    
    
    
    E -------------------------------------------------------
    B -------------------------------------------------------
    G -------------------------------------------------------
    D |-10-10-10-10-10-10-10-10-10-10-10-10-10-10-10-10------------------
    A |-8--8--8--8--8--8--8--7--7--7--7--7--7--7--7--7--7--7--7--7--7--7-
    E --------------------------------------5--5--5--5--5--5-
    
    
    
    E -------------------------------------------------------
    B -------------------------------------------------------
    G --------------------------------------------9--9--9--9-
    D --------------------10-10-10-10-10-10-10-10-10-10-10-10
    A |-7--7--7--7--7--7--7--7--7--7--8--8--8--8--8--8--8--8--7--7--7--7-
    E |-5--5--5--5--5--5--5--5--5--5-------------------------------------
    
    
    
    E -------------------------------------------------------
    B -------------------------------------------------------
    G |-9--9--9--9--------------------------------------9--9--7--7-------
    D |-10-10-10-10-7--7--7--7--7--7--7--7--7--7--7--7--------------10-10
    A |-7--7--7--7--7--7--7--7--7--7--7--7--7--7--7--7--------------8--8-
    E -------------------------------------------------------
    
    
    
    E -------------------------------------------------------
    B -------------------------------------------------------
    G -------------------------------------------------------
    D |-10-10-10-10-10-10-10-10-10-10-10-10-10-10-2--2--2--2--2--2--2--2-
    A |-8--8--8--8--8--8--7--7--7--7--7--7--7--7--0--0--0--0--0--0--0--0-
    E -------------------------------------------------------
    
    
    
    E -------------------------------------------------------
    B -------------------------------------------------------
    G --------------------------------------9--9--9--9--9--9-
    D |-2--2--2--2--2--2--2--2-/10-10-10-10-10-10-10-10-10-10-10-10-10-10
    A |-0--0--0--0--0--0--0--0-/8--8--8--8--8--8--8--8--7--7--7--7--7--7-
    E -------------------------------------------------------
    
    
    
    E -------------------------------------------------------
    B -------------------------------------------------------
    G |-9--9--9--9--9--9--9--9--9--9--9--9--9--9--9--9--9--9-------------
    D |-10-10-7--7--7--7--7--7--7--7--7--7--7--7--7--7--7--7-------------
    A |-7--7--7--7--7--7--7--7--7--7--7--7--7--7--7--7--7--7-------------
    E -------------------------------------------------------
    
    
    
    E -------------------------------------------------------
    B -------------------------------------------------------
    G |-7--7--------------7--7--------------7--7--------------7--7-------
    D |-7--7--------------7--7--------------7--7--------------7--7-------
    A |-5--5--------------5--5--------------5--5--------------5--5-------
    E -------------------------------------------------------
    
    
    
    E |-8--8--8--8--8--8--8--------x--x--x--x--x--x--x--x--x--x--x--x----
    B |-8--8--8--8--8--8--8--------x--x--x--x--x--x--x--x--x--x--x--x----
    G -----------7--7--x--x--x--x--x--x--x--x--x--x--x--x--7-
    D -----------7--7--x--x--x--x--x--x--x--x--x--x--x--x--7-
    A -----------5--5--x--x--x--x--x--x--x--x--x--x--x--x--5-
    E -----------------x--x--x--x--x--x--x--x--x--x--x--x----
    
    
    
    E |----x--x--x--x--x--x--x--x--x--x--x--x--------x--x--x--x--x--x--x-
    B |----x--x--x--x--x--x--x--x--x--x--x--x--------x--x--x--x--x--x--x-
    G |-7--x--x--x--x--x--x--x--x--x--x--x--x--7--7--x--x--x--x--x--x--x-
    D |-7--x--x--x--x--x--x--x--x--x--x--x--x--7--7--x--x--x--x--x--x--x-
    A |-5--x--x--x--x--x--x--x--x--x--x--x--x--5--5--x--x--x--x--x--x--x-
    E |----x--x--x--x--x--x--x--x--x--x--x--x--------x--x--x--x--x--x--x-
    
    
    
    E |-x--x--x--x--------x--x--x--8--8--8--8--8--8--8--------x--x--x--x-
    B |-x--x--x--x--------x--x--x--8--8--8--8--8--8--8--------x--x--x--x-
    G |-x--x--x--x--7--7--x--x--x-----------------------7--7--x--x--x--x-
    D |-x--x--x--x--7--7--x--x--x-----------------------7--7--x--x--x--x-
    A |-x--x--x--x--5--5--x--x--x-----------------------5--5--x--x--x--x-
    E |-x--x--x--x--------x--x--x-----------------------------x--x--x--x-
    
    
    
    E |-x--x--x--x--x--x--x--x--------x--x--x--x--x--x--x--x--x--x--x--x-
    B |-x--x--x--x--x--x--x--x--------x--x--x--x--x--x--x--x--x--x--x--x-
    G |-x--x--x--x--x--x--x--x--7--7--x--x--x--x--x--x--x--x--x--x--x--x-
    D |-x--x--x--x--x--x--x--x--7--7--x--x--x--x--x--x--x--x--x--x--x--x-
    A |-x--x--x--x--x--x--x--x--5--5--x--x--x--x--x--x--x--x--x--x--x--x-
    E |-x--x--x--x--x--x--x--x--------x--x--x--x--x--x--x--x--x--x--x--x-
    
    
    
    E |-------x--x--x--x--x--x--x--x--x--x--x----------------------------
    B |-------x--x--x--x--x--x--x--x--x--x--x----------------------------
    G |-7--7--x--x--x--x--x--x--x--x--x--x--x--7--7--7--7--7--7--7--7--7-
    D |-7--7--x--x--x--x--x--x--x--x--x--x--x--7--7--7--7--7--7--7--7--7-
    A |-5--5--x--x--x--x--x--x--x--x--x--x--x--5--5--5--5--5--5--5--5--5-
    E |-------x--x--x--x--x--x--x--x--x--x--x----------------------------
    
    
    
    E -------------------------------------------------------
    B -------------------------------------------------------
    G |-7--7--7----------------------------------------------------------
    D |-7--7--7----------------------------------------------------------
    A |-5--5--5----------------------------------------------------------
    E -------------------------------------------------------
    
    
    
    E |-1--1--1--1--1--1--1--1--------------------------5--5--5--5--5--5-
    B |-1--1--1--1--1--1--1--1--------------------------6--6--6--6--6--6-
    G |-2--2--2--2--2--2--2--2--5--5--5--5--5--5--5--5--7--7--7--7--7--7-
    D |-3--3--3--3--3--3--3--3--5--5--5--5--5--5--5--5--7--7--7--7--7--7-
    A |-3--3--3--3--3--3--3--3--3--3--3--3--3--3--3--3--5--5--5--5--5--5-
    E |-1--1--1--1--1--1--1--1-------------------------------------------
    
    
    
    E |-5--5--5--5--5--5--5--5--5--5--1--1--1--1--1--1--1--1-------------
    B |-6--6--6--6--6--6--6--6--6--6--1--1--1--1--1--1--1--1-------------
    G |-7--7--7--7--7--7--7--7--7--7--2--2--2--2--2--2--2--2--5--5--5--5-
    D |-7--7--7--7--7--7--7--7--7--7--3--3--3--3--3--3--3--3--5--5--5--5-
    A |-5--5--5--5--5--5--5--5--5--5--3--3--3--3--3--3--3--3--3--3--3--3-
    E --------------------1--1--1--1--1--1--1--1-------------
    
    
    
    E --5--5--5--5--5--5--5--5--6--6--6--6--6--6--6--6--1--1-
    B --5--5--5--5--5--5--5--5--6--6--6--6--6--6--6--6--1--1-
    G |-5--5--5--5--5--5--5--5--5--5--5--5--7--7--7--7--7--7--7--7--2--2-
    D |-5--5--5--5--7--7--7--7--7--7--7--7--8--8--8--8--8--8--8--8--3--3-
    A |-3--3--3--3--7--7--7--7--7--7--7--7--8--8--8--8--8--8--8--8--3--3-
    E --5--5--5--5--5--5--5--5--6--6--6--6--6--6--6--6--1--1-
    
    
    
    E |-1--1--1--1--1--1--------------------------5--5--5--5--5--5--5--5-
    B |-1--1--1--1--1--1--------------------------6--6--6--6--6--6--6--6-
    G |-2--2--2--2--2--2--5--5--5--5--5--5--5--5--7--7--7--7--7--7--7--7-
    D |-3--3--3--3--3--3--5--5--5--5--5--5--5--5--7--7--7--7--7--7--7--7-
    A |-3--3--3--3--3--3--3--3--3--3--3--3--3--3--5--5--5--5--5--5--5--5-
    E |-1--1--1--1--1--1-------------------------------------------------
    
    
    
    E |-5--5--5--5--5--5--5--5--1--1--1--1--1--1--1--1-------------------
    B |-6--6--6--6--6--6--6--6--1--1--1--1--1--1--1--1-------------------
    G |-7--7--7--7--7--7--7--7--2--2--2--2--2--2--2--2--5--5--5--5--5--5-
    D |-7--7--7--7--7--7--7--7--3--3--3--3--3--3--3--3--5--5--5--5--5--5-
    A |-5--5--5--5--5--5--5--5--3--3--3--3--3--3--3--3--3--3--3--3--3--3-
    E --------------1--1--1--1--1--1--1--1-------------------
    
    
    
    E |-------5--5--5--5--5--5--5--5--6--6--6--6--6--6--6--6--1--1--1--1-
    B |-------5--5--5--5--5--5--5--5--6--6--6--6--6--6--6--6--1--1--1--1-
    G |-5--5--5--5--5--5--5--5--5--5--7--7--7--7--7--7--7--7--2--2--2--2-
    D |-5--5--7--7--7--7--7--7--7--7--8--8--8--8--8--8--8--8--3--3--3--3-
    A |-3--3--7--7--7--7--7--7--7--7--8--8--8--8--8--8--8--8--3--3--3--3-
    E |-------5--5--5--5--5--5--5--5--6--6--6--6--6--6--6--6--1--1--1--1-
    
    
    
    E |-1--1--1--1--------------------------5--5--5--5--5--5--5--5--5--5-
    B |-1--1--1--1--------------------------6--6--6--6--6--6--6--6--6--6-
    G |-2--2--2--2--5--5--5--5--5--5--5--5--7--7--7--7--7--7--7--7--7--7-
    D |-3--3--3--3--5--5--5--5--5--5--5--5--7--7--7--7--7--7--7--7--7--7-
    A |-3--3--3--3--3--3--3--3--3--3--3--3--5--5--5--5--5--5--5--5--5--5-
    E |-1--1--1--1-------------------------------------------------------
    
    
    
    E |-5--5--5--5--5--5--1--1--1--1--1--1--1--1-------------------------
    B |-6--6--6--6--6--6--1--1--1--1--1--1--1--1-------------------------
    G |-7--7--7--7--7--7--2--2--2--2--2--2--2--2--5--5--5--5--5--5--5--5-
    D |-7--7--7--7--7--7--3--3--3--3--3--3--3--3--5--5--5--5--5--5--5--5-
    A |-5--5--5--5--5--5--3--3--3--3--3--3--3--3--3--3--3--3--3--3--3--3-
    E --------1--1--1--1--1--1--1--1-------------------------
    
    
    
    E |-5--5--5--5--5--5--5--5--6--6--6--6--6--6--6--6-----------5-------
    B |-5--5--5--5--5--5--5--5--6--6--6--6--6--6--6--6-----------6-------
    G |-5--5--5--5--5--5--5--5--7--7--7--7--7--7--7--7-----------7-------
    D |-7--7--7--7--7--7--7--7--8--8--8--8--8--8--8--8-----------7-------
    A |-7--7--7--7--7--7--7--7--8--8--8--8--8--8--8--8-----------5-------
    E |-5--5--5--5--5--5--5--5--6--6--6--6--6--6--6--6-------------------
    
    
    Standing in line to see the show tonight 
    and thereґs a light of 
    heavy glow 
    by the way I tried to say 
    Iґd be there waiting for 
    Daniґs the girl is 
    singing songs to me 
    beneath the marquee 
    overload 
    
    steak knife 
    card shark 
    con job 
    boot cut 
    
    Skin that flick 
    sheґs such a little DJ 
    to get there quick by street but not the freeway 
    turn that trick 
    to make a little leeway 
    beat that nic 
    but not the way that we play 
    
    dogtown 
    blood bath 
    rib cage 
    soft tal 
    
    Standing in line to 
    see the show tonight 
    and thereґs a light on 
    heavy glow 
    by the way I tried to say 
    Iґd be there waiting for 
    
    black jack 
    dope dick 
    pawn shop 
    quick pick 
    
    kiss that dyke 
    i know you want to hold one 
    not on strike 
    but Iґm about to bowl one 
    bite that mic 
    I know you never stole one 
    girls that like 
    a story, so I told one 
    
    song bird 
    main line 
    cash back 
    hard top 
    
    Standing in line to 
    see the show tonight 
    and thereґs a light on 
    heavy glow 
    by the way I tried to say 
    Iґd be there waiting for 
    Daniґs the girl is 
    singing songs to me 
    beneath the marquee 
    overload
     

    Тональность:

    Нет текста!



    Назад
    Рекомендуем посмотреть другие песни исполнителя «Red Hot Chili Peppers»:

    • Комментарии Facebook ()
    • Комментарии ВКонтакте



    Добавить в Избранное Браузера
    Сохранить здесь Очистить


    x

    0


    +
    -

    +
    -

    -

    Авторизация





    Зарегистрироваться

    M

    Дата и время

    • 07:45:58
       

    Социальные ссылки


    Наши приложения

    • Muzbank App Play Market
    • Muzbank Amazon App