MUZBANK



A Most Complete Bank Of Music Information

МУЗЫКАЛЬНО-ИНФОРМАЦИОННЫЙ БАНК

Поиск по сайту







    RRed Hot Chili Peppers • Coffee Shop (аккорды и текст - chords & lyrics)


    320

    Print

    Видео «Coffee Shop (Red Hot Chili Peppers)»

    Видео клипы к песне подбираются автоматически сайтом youtube. Возможны некоторые несоответствия клипов песне.

    ↑ Спрятать рекламу ↑



    Download


    Theme :
    
    1st guitar :
    E|-------------------------------------------------------------|
    B|-------------------------------------------------------------|
    G|-------------------------------------------------------------|
    D|-2--x-x-x--2--x-x-x-x--2--2--2--x--x--x--x--2--x--x--x--2--2-|
    A|-2--x-x-x--2--x-x-x-x--2--2--2--x--x--x--x--2--x--x--x--2--2-|
    E|----x-x-x--0--x-x-x-x--0--0--0--x--x--x--x--0--x--x--x--0--0-|
    
    2nd guitar :
    E|------------------------------------------------xxxx//12-12|-|
    B|-------------------------------------------------xxxx//12-12-|
    G|----------------------4--3~~~~~~~~~~~~~~~~~~~~~~~xxxx//12-12-|
    D|-------------------------------------------------------------|
    A|-------------------------------------------------------------|
    E|-----------------------------------------------------------|-|
    
    I am just a lousy bum
    Searching for the unknow crumb, the crumb, the crumb
    Something of someone to come
    Come along illumate my lust, combust
    Confucing might have been confused
    And buddha might have blown a face, booze the muse
    
    Chorus :
    E|-------------------------------------------------------------|
    B|-------------------------------------------------------------|
    G|-------------------------------------------------------------|
    D|-------------------------------------------------------------|
    A|-7----7----5-----5-----2----------2-------------2----------2-|
    E|-----5----3-----3-----0----------0-------------0----------0--|
        Meet me   at    the       Coffee shop
    
        Where we  can dance like Iggy Pop
    
    E|-------------------------------------------------------------|
    B|-------------------------------------------------------------|
    G|-------------------------------------------------------------|
    D|-------------------------------------------------------------|
    A|-7--7--7-7-5----5---4----------------------5----4-------4--4-|
    E|---5--5-5-3----3---2----------------------3----2-------2--2--|
          Another go   in  the    porking  lot
    Frewak the
    
    E|-------------------------------------|
    B|-------------------------------------|
    G|-------------------------------------|
    D|-5------5---------9----10---12----14-|
    A|-3------3---7------------------------|
    E|-----------5-----7----8----10----12--|
        cheek  on  your  hotspo-ot
    

    Тональность:

    Нет текста!



    Назад
    Рекомендуем посмотреть другие песни исполнителя «Red Hot Chili Peppers»:

    • Комментарии Facebook ()
    • Комментарии ВКонтакте



    Добавить в Избранное Браузера
    Сохранить здесь Очистить


    x

    0


    +
    -

    +
    -

    -

    Авторизация





    Зарегистрироваться

    M

    Дата и время

    • 21:42:16
       

    Социальные ссылки


    Наши приложения

    • Muzbank App Play Market
    • Muzbank Amazon App