MUZBANK



A Most Complete Bank Of Music Information

МУЗЫКАЛЬНО-ИНФОРМАЦИОННЫЙ БАНК

Поиск по сайту







    RRed Hot Chili Peppers • Crosstown Traffic (аккорды и текст - chords & lyrics)


    217

    Print

    Видео «Crosstown Traffic (Red Hot Chili Peppers)»

    Видео клипы к песне подбираются автоматически сайтом youtube. Возможны некоторые несоответствия клипов песне.

    ↑ Спрятать рекламу ↑



    Download


    Intro
    G|------------------------------------------|
    D|-6h8-6h8-6h8-6h8-6h8--6h8-6h8-6h8-6h8-6h8-|
    A|------------------------------------------|
    E|------------------------------------------|
    
    Chorus
    G|------------------------------5-----|
    D|------------5------3-3--3-5h7---7-5-|
    A|-3-3--3-5h7---7-5-------------------|
    E|------------------------------------|
    
    Last time on chorus
    G|------------------------------5-----|
    D|------------5------3-3--3-5h7---7-5-|
    A|-3-3--3-5h7---7-5-------------------|
    E|------------------------------------|
    
    G|------------------------------------------|
    D|-6h8-6h8-6h8-6h8-6h8--6h8-6h8-6h8-6h8-6h8-|
    A|------------------------------------------|
    E|------------------------------------------|
    
    Verse
    G|-------------------------------------------------------|
    D|------3-3-------3-3--------------------1-1-1-1-1-1-1-1-|
    A|-3-3-------3-3-------1-1-1-1-1-1-1-1-1-----------------|
    E|-------------------------------------------------------|
    
    G|----------------------------------|
    D|----------------------------------|
    A|----------------------------------|
    E|-4-4-4-4-4-4-4-4-33-33-33-33-33-3-|
    
    Solo
    G|-----------------------------------------6---------|
    D|-3h5-555-55--3h5-555-55--3h5-555-55--6-8---8-6-----|
    A|-----------------------------------------------8-6-|
    E|---------------------------------------------------|
    
    G|-------------------------------------------|
    D|-3h5-555-55--3h5-555-55--3h5-3-------------|
    A|-------------------------------5-3---------|
    E|-----------------------------------5-3-1-0-|
    
    Last chorus (do this bit a few times)
    G|------------------------------5-----|
    D|------------5------3-3--3-5h7---7-5-|
    A|-3-3--3-5h7---7-5-------------------|
    E|------------------------------------|
    
    G|------------------------------------------|
    D|-6h8-6h8-6h8-6h8-6h8--6h8-6h8-6h8-6h8-6h8-|
    A|------------------------------------------|
    E|------------------------------------------|
    
    G|------------------------------5-----|
    D|------------5------3-3--3-5h7---7-5-|
    A|-3-3--3-5h7---7-5-------------------|
    E|------------------------------------|
    
    G|---------------------|
    D|-6h8-6h8-6h8-6h8-6h8-|
    A|---------------------|
    E|---------------------|
    
    Outro
    G|------------------------------5-----|
    D|------------5------3-3--3-5h7---7-5-|
    A|-3-3--3-5h7---7-5-------------------|
    E|------------------------------------|
    
    G|----------------------------------------------|
    D|-6h8-6h8-6h8-6h8-6h8--6h8-6h8-6h8-6h8-6h8-----|
    A|--------------------------------------------3-|
    E|----------------------------------------------|
    
    G|-------------------3-4-5~-|
    D|-----2-2-3-3-4-4-5--------|
    A|-3-3----------------------|
    E|--------------------------|
    

    Тональность:

    Нет текста!



    Назад
    Рекомендуем посмотреть другие песни исполнителя «Red Hot Chili Peppers»:

    • Комментарии Facebook ()
    • Комментарии ВКонтакте



    Добавить в Избранное Браузера
    Сохранить здесь Очистить


    x

    0


    +
    -

    +
    -

    -

    Авторизация





    Зарегистрироваться

    M

    Дата и время

    • 03:31:16
       

    Социальные ссылки


    Наши приложения

    • Muzbank App Play Market
    • Muzbank Amazon App