MUZBANK



A Most Complete Bank Of Music Information

МУЗЫКАЛЬНО-ИНФОРМАЦИОННЫЙ БАНК

Поиск по сайту







    RRed Hot Chili Peppers • Emit Remmus (аккорды и текст - chords & lyrics)


    192

    Print

    Видео «Emit Remmus (Red Hot Chili Peppers)»

    Видео клипы к песне подбираются автоматически сайтом youtube. Возможны некоторые несоответствия клипов песне.

    ↑ Спрятать рекламу ↑



    Download



     
    
    
    Emit Remmus
    
    Guitar Intro/Verse
    |---------|---------|---------|---------|
    |---------|---------|---------|---------|
    |--15~~~--|---~~~---|--13~~~--|---~~~---|
    |---------|---------|---------|---------|
    |---------|---------|---------|---------|
    |---------|---------|---------|---------|
    
    Guitar Chorus
    |--6/8--8--8--11-11-11-(11)--|
    |--8/10-10-10-13-13-13-(13)--|
    |--8/10-10-10-13-13-13-(13)--|
    |--8/10-10-10-13-13-13-(13)--|
    |--6/8--8--8--11-11-11-(11)--|
    |----------------------------|
    
    Guitar Bridge
    |--3--3-3--3-3-3--|--4--4-4--4-4-4--|
    |--5--5-5--5-5-5--|--4--4-4--4-4-4--|
    |--5--5-5--5-5-5--|--5--5-5--5-5-5--|
    |--5--5-5--5-5-5--|--6--6-6--6-6-6--|
    |--3--3-3--3-3-3--|--6--6-6--6-6-6--|
    |-----------------|--4--4-4--4-4-4--|
    
    |--6--6-6--6-6-6--|--/8--8--8--8--8--8--8--8---|
    |--6--6-6--6-6-6--|--/10-10-10-10-10-10-10-10--|
    |--7--7-7--7-7-7--|--/10-10-10-10-10-10-10-10--|
    |--8--8-8--8-8-8--|--/10-10-10-10-10-10-10-10--|
    |--8--8-8--8-8-8--|--/8--8--8--8--8--8--8--8---|
    |--6--6-6--6-6-6--|----------------------------|
     

    Тональность:

    Нет текста!



    Назад
    Рекомендуем посмотреть другие песни исполнителя «Red Hot Chili Peppers»:

    • Комментарии Facebook ()
    • Комментарии ВКонтакте



    Добавить в Избранное Браузера
    Сохранить здесь Очистить


    x

    0


    +
    -

    +
    -

    -

    Авторизация





    Зарегистрироваться

    M

    Дата и время

    • 23:34:47
       

    Социальные ссылки


    Наши приложения

    • Muzbank App Play Market
    • Muzbank Amazon App