MUZBANK



A Most Complete Bank Of Music Information

МУЗЫКАЛЬНО-ИНФОРМАЦИОННЫЙ БАНК

Поиск по сайту







    RRed Hot Chili Peppers • Felas Cock (аккорды и текст - chords & lyrics)


    291

    Print

    Видео «Felas Cock (Red Hot Chili Peppers)»

    Видео клипы к песне подбираются автоматически сайтом youtube. Возможны некоторые несоответствия клипов песне.

    ↑ Спрятать рекламу ↑



    Download



    Fig.1
                                    End
    E|----------------------------|--------------------------------|
    B|----------------------------|--------------------------------|
    G|*--------------------------*|--------------------------------|
    D|*--------------------------*|--------------------------------|
    A|--10--10-10-10-10-10-10-10--|-10--10--10--10--10--10--10--10-|
    E|----------------------------|--------------------------------|
    
    Instead of playing the G on the 10th fret on the A-string, you
    could play the G on 5th fret on the D-string if you think that
    sounds better.
    
    Fig. 2
    
    E|-17-15----------------------------------|
    B|-17-15-x-x-15-x-x-17-x-x-15-x-x-17------|
    G|-15-15-x-x-15-x-x-17-x-x-15-x-x-17------|
    D|-----------15-x-x-17-x-x-15-x-x-17-x----|
    A|-----------------------------------x----|
    E|-------------------------------------15-|
    
    E|--17-15--------------------------18-18-|
    B|--17-15-x-x-15-x-x-17-x-x-15-x-x-18-18-|
    G|--15-15-x-x-15-x-x-17-x-x-15-x-x-------|
    D|--------x-x-15-x-x-17-x-x-15-x-x-------|
    A|---------------------------------------|
    E|---------------------------------------|
    
    E|--17-15-------------------------------------|
    B|--17-15-x-x-15-x-x-17-x-x-15-x-x--17--------|
    G|--15-15-x-x-15-x-x-17-x-x-15-x-x--17--------|
    D|------------15-x-x-17-x-x-15-x-x--17--x-----|
    A|--------------------------------------x-----|
    E|----------------------------------------15--|
    
    E|--17-15-------------------------------------|
    B|--17-15-x-x-15-x-x-17-x-x-15--x-x-x-x-x-x---|
    G|--15-15-x-x-15-x-x-17-x-x-15--x-x-x-x-x-x---| x2
    D|--------x-x-15-x-x-17-x-x-15--x-x-x-x-x-x---|
    A|--------------------------------------------|
    E|--------------------------------------------|
    
    I don?t know if you should play the the notes on the A and
    D-string in this part, but I think it sounds good both ways.
    
    Fig. 3                                   End
    
          G9         F9        C9                    G9
    E|----10----|----8----|----3----|----15----|----10-|
    B|----10----|----8----|----3----|----15----|----10-|
    G|----10----|----8----|----3----|----15----|----10-|
    D|-----9----|----7----|----2----|----------|-----9-|
    A|----10----|----8----|----3----|----------|----10-|
    E|----------|---------|---------|----------|-------|
    
    Sometimes it ends with the G9 chord and sometimes not...but
    anyway go back to Fig.1 and palm-mute after this bit wich
    I called Fig.3
    
    Last thing is:
    
    E|---------------------------------|
    B|---------8-------8----11--8------|
    G|----10b-----10b--------------10b-|
    D|---------------------------------|
    A|---------------------------------|
    E|---------------------------------|
    
    This could be the Bass part for Fig. 1 & 2
    
    G|-----------------------------|---------------------------|
    D|--5----3-3-3-3---------------|--5----3-3-3-3-------------|
    A|----------------5-5-5-3------|----------------5-5-5-3----|
    E|-----------------------5-3---|-----------------------5-3-|
    
    ...or like this.
    
    G|-------------------------------|-----------------------------|
    D|--5----3-3-3-3-----------------|--5----3-3-3-3---------------|
    A|----------------5-5-5-3-(0)----|----------------5-5-5-3-(0)--|
    E|---------------------------3---|---------------------------3-|
    
    This for Fig. 3
    
          G         F         C
    G|---------|---------|---------|----5-|
    D|----5----|----3----|---------|------|
    A|---------|---------|----3----|------|
    E|---------|---------|---------|------|
    

    Тональность:

    Нет текста!



    Назад
    Рекомендуем посмотреть другие песни исполнителя «Red Hot Chili Peppers»:

    • Комментарии Facebook ()
    • Комментарии ВКонтакте



    Добавить в Избранное Браузера
    Сохранить здесь Очистить


    x

    0


    +
    -

    +
    -

    -

    Авторизация





    Зарегистрироваться

    M

    Дата и время

    • 01:11:36
       

    Социальные ссылки


    Наши приложения

    • Muzbank App Play Market
    • Muzbank Amazon App