MUZBANK



A Most Complete Bank Of Music Information

МУЗЫКАЛЬНО-ИНФОРМАЦИОННЫЙ БАНК

Поиск по сайту







    RRed Hot Chili Peppers • Get On Top (аккорды и текст - chords & lyrics)


    277

    Print

    Видео «Get On Top (Red Hot Chili Peppers)»

    Видео клипы к песне подбираются автоматически сайтом youtube. Возможны некоторые несоответствия клипов песне.

    ↑ Спрятать рекламу ↑



    Download



    Intro & Verse
    E|------------------------------------------|
    B|------------------------------------------|
    G|------------------------------------------|
    D|------------------------------------------|
    A|--7-7-7-7-10-10-10-10---7-7-7-10-10-10-10-|
    E|------------------------------------------|
    
    Chorus
    E|-------------------------|
    B|-------------------------|
    G|-------------------------|
    D|--7-7-10-10---7-7--10-10-|
    A|-------------------------|
    E|-------------------------|
    
    Riff (played right after chorus)
       E5
    E|--12--12--12----12-|
    B|--12--12--12----12-|
    G|-------------------|
    D|-------------------|
    A|-------------------|
    E|-------------------|
    
    Play this 2 times.
    E|--5---8-|
    B|--6---5-|
    G|--------|
    D|--------|
    A|--------|
    E|--------|
    
    Play this 2 times.
    E|--------|
    B|--6---5-|
    G|--7---5-|
    D|--------|
    A|--------|
    E|--------|
    
    E|-------------------------------------------------|
    B|-------------------------------------------------|
    G|--------------------------5-----5--5p7h5--7------|
    D|--5h7-7--7p5-7--------5/7---7----------------5/7-|
    A|---------------5---------------------------------|
    E|-------------------------------------------------|
    
    Bass
    E|---------------------------------|
    B|---------------------------------|
    G|---------------------------------|
    D|---------------------------5-----|
    A|---------3-3-5-5-5/7---8-------7-|
    E|--5-5-5--------------------------|
    
       A5
    E|--------|
    B|--------|
    G|--7-7-7-|
    D|--7-7-7-|
    A|--5-5-5-|
    E|--------|
    

    Тональность:

    Нет текста!



    Назад
    Рекомендуем посмотреть другие песни исполнителя «Red Hot Chili Peppers»:

    • Комментарии Facebook ()
    • Комментарии ВКонтакте



    Добавить в Избранное Браузера
    Сохранить здесь Очистить


    x

    0


    +
    -

    +
    -

    -

    Авторизация





    Зарегистрироваться

    M

    Дата и время

    • 11:39:43
       

    Социальные ссылки


    Наши приложения

    • Muzbank App Play Market
    • Muzbank Amazon App