MUZBANK



A Most Complete Bank Of Music Information

МУЗЫКАЛЬНО-ИНФОРМАЦИОННЫЙ БАНК

Поиск по сайту







    RRed Hot Chili Peppers • Higher Ground (аккорды и текст - chords & lyrics)


    262

    Print

    Видео «Higher Ground (Red Hot Chili Peppers)»

    Видео клипы к песне подбираются автоматически сайтом youtube. Возможны некоторые несоответствия клипов песне.

    ↑ Спрятать рекламу ↑



    Download


    intro
    E|------------------------------------|
    B|----12-----12--x--x--x--------------|
    G|.---12-----12--x--x--x----14p12-----|
    D|.---12-----12--x--x--x-----------14-|
    A|-x------x------x--x--x--------------|
    E|------------------------------------|
    
    E|--------------------------------|
    B|-12-----12----------------------|
    G|-12-----12--------12---------12-|
    D|-12-----12--------12---------12-|
    A|-----x------12h14-----12h14-----|
    E|--------------------------------|
    
    E|------------------------------------|
    B|--x--12----12--x--x--x------------x-|
    G|--x--12----12--x--x--x--14p12-----x-|
    D|--x-----14-----x--x--x--------14----|
    A|---------------x--x--x--------------|
    E|------------------------------------|
    
    E|-15-15-15-15-15-15-15-15-15-15-15-|
    B|-15-15-15-15-15-15-15-15-15-15-15-|
    G|--------------------------------.-|
    D|--------------------------------.-|
    A|----------------------------------|
    E|----------------------------------|
    
    rhythm fill
    
    E|------------------------------------|
    B|------------------------------------|
    G|-------------4--6--------------4--6-|
    D|-------------5--7--------------5--7-| repeat a few times
    A|-------------5--7--------------5--7-|
    E|-0-0-0-0-0-0-3--5--0-0-0-0-0-0-3--5-|
    
    E|-------------------------------------------|
    B|--9----9--x-x-x--------9----9--x-x-x-------|
    G|--9----9--x-x-x--9-----9----9--x-x-x--9----|
    D|--9----9--x-x-x--9h11--9----9--x-x-x--9h11-|
    A|----11----x-x-x----------11----x-x-x-------|
    E|-------------------------------------------|
    
    E|---------------------15-15-15-15-15-15-15-15-|
    B|-9----9--x-x-x-------15-15-15-15-15-15-15-15-|
    G|-9----9--x-x-x--9----------------------------|
    D|-9----9--x-x-x--9h11-------------------------|
    A|---11----x-x-x-------------------------------|
    E|---------------------------------------------|
    
    E|----------------------------------------|
    B|-17-x-17-x-17-17-17-x-------------------|
    G|-17-x-17-x-17-17-17-x-------------------|
    D|-17-x-17-x-17-17-17-x--5-x-5---5--5--5--| repeat last
    A|-15-x-15-x-15-15-15-x--5-x-5---5--5--5--| measure once
    E|-----------------------3-x-3---3--3--3--|
    
    E|----------------------------------------|----|
    B|----------------------------------------|--5-|
    G|----------------------------------------|--5-|
    D|--7-------------------------------------|--5-|
    A|--7-------------------------------------|--3-|
    E|--5-------------------------------------|----|
    
    E|-----------------------|-----------------------|
    B|-----------------------|-----------------------|
    G|-9-9-9-9-12-9-12-14-12-|-9-9-9-9-12-9-12-14-12-|
    D|-9-9-9-9-12-9-12-14-12-|-9-9-9-9-12-9-12-14-12-|
    A|-----------------------|-----------------------|
    E|-----------------------|-----------------------|
    
    E|-----------------------|
    B|-----------------------|
    G|-9-9-12-9-12-14-12-9-9-|
    D|-9-9-12-9-12-14-12-9-9-|
    A|-----------------------|
    E|-----------------------|
    
    At Woodsctock while Anthony Keidis is telling everyone to wave
    thier shirt in the air just before playing Higher Ground this
    is what they play.
    
    E|--------------------------|-------------------------|
    B|--------------------------|-------------------------|
    G|.----4--3--4--3--4--4/11--|--11--10--10--11--3--4-.-|
    D|.----4--3--4--3--4--4/11--|--11--10--10--11--3--4-.-|
    A|-----2--1--2--1--2--2/9---|--9---8---8---8---1--2---|
    E|--0-----------------------|-------------------------|
    

    Тональность:

    Нет текста!



    Назад
    Рекомендуем посмотреть другие песни исполнителя «Red Hot Chili Peppers»:

    • Комментарии Facebook ()
    • Комментарии ВКонтакте



    Добавить в Избранное Браузера
    Сохранить здесь Очистить


    x

    0


    +
    -

    +
    -

    -

    Авторизация





    Зарегистрироваться

    M

    Дата и время

    • 02:26:01
       

    Социальные ссылки


    Наши приложения

    • Muzbank App Play Market
    • Muzbank Amazon App