MUZBANK



A Most Complete Bank Of Music Information

МУЗЫКАЛЬНО-ИНФОРМАЦИОННЫЙ БАНК

Поиск по сайту







    RRed Hot Chili Peppers • No Chump Love Sucker (аккорды и текст - chords & lyrics)


    250

    Print

    Видео «No Chump Love Sucker (Red Hot Chili Peppers)»

    Видео клипы к песне подбираются автоматически сайтом youtube. Возможны некоторые несоответствия клипов песне.

    ↑ Спрятать рекламу ↑



    Download



    	Verse play eight times
    G|--------8p9-|-------8p9-|--------8p9-|---11p12--------|
    D|------------|-----------|------------|----------11p12-|
    A|--7-7-7-7---|--7-7-7-7--|--7-7-7-7---|--10------------|
    E|------------|-----------|------------|---------10-----|
    
    	Interlude after two first verses
    G|-------------|-------------|------------|-----------------|
    D|--7-7-7-5-7--|--7-7-7-5-7--|--5-5-5-4-5-|--10-10-10-10-10-|
    A|-------------|-------------|------------|-----------------|
    E|-------------|-------------|------------|-----------------|
    
    	Interlude after third verse
    G|--12-12-12-11-12--|--11-11-11-10-11--|--10-10-10-9-10-|
    D|------------------|------------------|----------------|
    A|------------------|------------------|----------------|
    E|------------------|------------------|----------------|
    
    G|--9-9-9-8-9-9--|play		|---------|-----------------|
    D|---------------|two		|--12-11--|--10-10-10-10-10-|
    A|---------------|times and	|---------|-----------------|
    E|---------------|then		|---------|-----------------|
    
    	Interlude after fourth verse
    G|------------|-----------------|------------|----------------|
    D|--7-10-5-7--|--7-10-5-10-5-7--|--7-10-5-7--|--7-10-5-10-5-7-|
    A|------------|-----------------|------------|----------------|
    E|------------|-----------------|------------|----------------|
    
    	Ending
    G|------------------------|
    D|------------------------|
    A|--10---10---11---12--7--|
    E|----10---10---11--------|
    

    Тональность:

    Нет текста!



    Назад
    Рекомендуем посмотреть другие песни исполнителя «Red Hot Chili Peppers»:

    • Комментарии Facebook ()
    • Комментарии ВКонтакте



    Добавить в Избранное Браузера
    Сохранить здесь Очистить


    x

    0


    +
    -

    +
    -

    -

    Авторизация





    Зарегистрироваться

    M

    Дата и время

    • 08:59:26
       

    Социальные ссылки


    Наши приложения

    • Muzbank App Play Market
    • Muzbank Amazon App