MUZBANK



A Most Complete Bank Of Music Information

МУЗЫКАЛЬНО-ИНФОРМАЦИОННЫЙ БАНК

Поиск по сайту







    RRed Hot Chili Peppers • On Mercury (аккорды и текст - chords & lyrics)


    222

    Print

    Видео «On Mercury (Red Hot Chili Peppers)»

    Видео клипы к песне подбираются автоматически сайтом youtube. Возможны некоторые несоответствия клипов песне.

    ↑ Спрятать рекламу ↑



    Download



     
    
    
    Main Riff: Repeat.
       Hm           G        A             F#G F#
    e--2-x-x-2-x-x-x3-3-3x-x-5-x-x-5-x-x-x-2-3-2-x-x-|
    B--3-x-x-3-x-x-x3-3-3x-x-5-x-x-5-x-x-x-2-3-2-x-x-|
    G--4-x-x-4-x-x-x4-4-4x-x-6-x-x-6-x-x-x-3-4-3-x-x-|
    D--4-x-x-4-x-x-x5-5-5x-x-7-x-x-7-x-x-x-4-5-4-x-x-|
    A--2-----2---------------7-----7-------4-5-4-----|
    E------------------------------------------------|
    
    Bridge:
    "Come again and tell me what youґre going through"
       G               A G     Hm        F*
    e--3-x-x-3-x-3-3-x-5-3-x-x-2-x-x-2-x-0-0-0-0-0-0-0-0-|
    B--3-x-x-3-x-3-3-x-5-3-x-x-2-x-x-2-x-2-2-2-2-2-2-2-2-|
    G--4-x-x-4-x-4-4-x-6-4-x-x-3-x-x-3-x-3-3-3-3-3-3-3-3-|
    D--5-x-x-5-x-5-5-x-7-5-x-x-4-x-x-4-x-4-4-4-4-4-4-4-4-|
    A--5-----5---5-5---7-5-----4-----4---4-4-4-4-4-4-4-4-|
    E----------------------------------------------------|
    
    Chorus:
       Hm          D           Em          G
    e--2-2-2-2-x-x-5-5-5-5-x-x-7-7-7-7-x-x-3-3-3-3-x-x-|
    B--3-3-3-3-x-x-7-7-7-7-x-x-8-8-8-8-x-x-3-3-3-3-x-x-|
    G--4-4-4-4-x-x-7-7-7-7-x-x-9-9-9-9-x-x-4-4-4-4-x-x-|
    D--4-4-4-4-x-x-7-7-7-7-x-x-9-9-9-9-x-x-5-5-5-5-x-x-|
    A--2-2-2-2-----5-5-5-5-----7-7-7-7-----5-5-5-5-x-x-|
    E--------------------------------------------------|
     

    Тональность:

    Нет текста!



    Назад
    Рекомендуем посмотреть другие песни исполнителя «Red Hot Chili Peppers»:

    • Комментарии Facebook ()
    • Комментарии ВКонтакте



    Добавить в Избранное Браузера
    Сохранить здесь Очистить


    x

    0


    +
    -

    +
    -

    -

    Авторизация





    Зарегистрироваться

    M

    Дата и время

    • 07:14:35
       

    Социальные ссылки


    Наши приложения

    • Muzbank App Play Market
    • Muzbank Amazon App