MUZBANK



A MOST COMPLETE BANK OF MUSIC INFORMATION

МУЗЫКАЛЬНО-ИНФОРМАЦИОННЫЙ БАНК







    RRed Hot Chili Peppers • Sex Rap (аккорды и текст - chords & lyrics)


    326

    Print

    Видео «Sex Rap (Red Hot Chili Peppers)»

    Видео клипы к песне подбираются автоматически сайтом youtube. Возможны некоторые несоответствия клипов песне.

    ↑ Спрятать рекламу ↑





     
    
    
    Sex Rap- Bass Tab
    By the Red Hot Chili Peppers
    >From the album Freaky Styley
    Tabbed by Otto Brandt (osmo_brand@hotmail.com)
    
    Verse play 4 times
    
    G |-----------|-----------|-----------|-----------|
    D |-----------|-----------|-----------|-----------|
    A |-----------|-------3---|-----------|-------3---|
    E |--5-5-5-3--|---5-------|--5-5-5-3--|---5-------|
     
    G |-----------|-----------|-----------|-----------|
    D |-----------|-----------|-----------|-----------|
    A |-----------|-------3---|-----------|---6--5----|
    E |--5-5-5-3--|---5-------|--5-5-5-3--|-----------|
    
    Interlude play 2 times
    
    G |-----------|-----------|-----------|-----------|
    D |-----------|-----------|-----------|-----------|
    A |--7--------|--7--------|--7--------|---7--7----|
    E |----5-7----|----5-7----|----5-7----|-----------|
    
    G |-----------|-----------|-----------|-----------|
    D |-----------|-----------|-----------|-----------|
    A |--7--------|--7--------|--7--------|----7------|
    E |----5-7----|----5-7----|----5-7----|-----------|
    
    Guitar solo
    
    G |-----------|-----------|-----------|-----------|
    D |-----------|-----------|-----------|-----------|
    A |-----------|--------1--|-----------|--------1--|
    E |--3-3-3-1--|--3-3-3----|--3-3-3-1--|--3-3-3----|
    
    G |-----------|-----------|-----------|-----------|
    D |-----------|-----------|-----------|-----------|
    A |-----------|--------1--|-----------|--------1--|
    E |--3-3-3-1--|--3-3-3----|--3-3-3-1--|--3-3-3----|
    
    G |------------|------------|------------|------------|
    D |------------|------------|------------|------------|
    A |------------|----------8-|------------|----------8-|
    E |-10-10-10-8-|-10-10-10---|-10-10-10-8-|-10-10-10---|
    
    G |-------------|-------------|-------------|-------------|
    D |-------------|-------------|-------------|-------------|
    A |-------------|----------10-|-------------|----------10-|
    E |-12-12-12-10-|-12-12-12----|-12-12-12-10-|-12-12-12----|
    
    
    If you have any comments, corrections or additions, please mail me.
     

    Тональность:

    Это должно быть в ТОП-листе! - Топ-лист композиций



    Назад
    Рекомендуем посмотреть другие песни исполнителя «Red Hot Chili Peppers»:

    • Комменты Fb ()
    • Комменты ВК



    Добавить в Избранное Браузера
    Сохранить здесь Очистить


    x

    0


    +
    -

    +
    -

    -

    Авторизация





    Зарегистрироваться

    M

    Дата и время

    • 19:37:13
       

    Социальные ссылки


    Наши приложения

    • Muzbank App Play Market
    • Muzbank Amazon App