MUZBANK



A MOST COMPLETE BANK OF MUSIC INFORMATION

МУЗЫКАЛЬНО-ИНФОРМАЦИОННЫЙ БАНК







    RRed Hot Chili Peppers • Subterranean Homesick Blue (аккорды и текст - chords & lyrics)


    286

    Print

    Видео «Subterranean Homesick Blue (Red Hot Chili Peppers)»

    Видео клипы к песне подбираются автоматически сайтом youtube. Возможны некоторые несоответствия клипов песне.

    ↑ Спрятать рекламу ↑





     
    
    
    THIS IS A CLASSIC FUNKY OLD SKOOL CHILIS WHICH I CAN ACTUALLY B F**KED 2 TAB
     
    INTRO/VERSE
    
     ------15-x----x----x----x-------15---------------
     ------15-x-13-x-13-x-13-x-14----15----12/1414-12-
     ---------x-12-x-12-x-12-x-14----------12/1414-12-  
     ---------x----x----x----x----12----14------------
     -------------------------------------------------
     -------------------------------------------------
    
    CHORUS
    
     --------15-151515-1515-
     --------14-141414-1414-
     --------14-141414-1414-
     ---7-7--14-141414-1414-
     ---7-7-----------------
     ---5-5-----------------
    
    SOLO
    
     --------------------------------------------------
     --------------------------------16-13/1613-12-13-
     -15-14-12-8--7/87-5-7-15-14-12-------------------
     --------------------------------------------------
     --------------------------------------------------
     --------------------------------------------------
     

    Тональность:

    Это должно быть в ТОП-листе! - Топ-лист композиций



    Назад
    Рекомендуем посмотреть другие песни исполнителя «Red Hot Chili Peppers»:

    • Комменты Fb ()
    • Комменты ВК



    Добавить в Избранное Браузера
    Сохранить здесь Очистить


    x

    0


    +
    -

    +
    -

    -

    Авторизация





    Зарегистрироваться

    M

    Дата и время

    • 14:54:29
       

    Социальные ссылки


    Наши приложения

    • Muzbank App Play Market
    • Muzbank Amazon App