MUZBANK



A Most Complete Bank Of Music Information

МУЗЫКАЛЬНО-ИНФОРМАЦИОННЫЙ БАНК

Поиск по сайту







    RRed Hot Chili Peppers • Subway To Venus (аккорды и текст - chords & lyrics)


    215

    Print

    Видео «Subway To Venus (Red Hot Chili Peppers)»

    Видео клипы к песне подбираются автоматически сайтом youtube. Возможны некоторые несоответствия клипов песне.

    ↑ Спрятать рекламу ↑



    Download


    e-----------------
    B-----------------
    G-77-7-7-7-777-777   PLAY THAT LICK 4 TIMES.
    D-----------------
    A-----------------
    E-----------------
    w/heavy distortion=guitar#2
    e----------------
    B----------------
    G----------------
    D----------------    PLAY THIS 4 TIMES.
    A-7-------4-5-456
    E---4-567--7-----
    
    OUTRO-GUITAR SOLO: played by guitar#3 w/heavy distortion + chorus
    
        hold bend  hold bend      these are slow bend and releases
    e-----------------------------------------
    B-10b~~~~~~vv-8b~~~~~~vv-5br--------------
    G----------------------------7brbrbrbrbrbr
    D-----------------------------------------
    A-----------------------------------------
    E-----------------------------------------
                                  use pre-bar dips on all of these notes
    e------------------------------------------------------
    B-------------------------------v101010v888v555v888v555
    G------------------------------------------------------
    D-9-7-9-5v(5)5v(5)5----5-------5-----------------------
    A-------------------5h7-5h7p5h7------------------------
    E------------------------------------------------------
    
    e-------------------------------------------------------
    B-------------------------------------------------------
    G-7h9---------------------------------------------------
    D----7h9-5h7--------------------------------------------
    A------------5h7----------------------------------------
    E----------------5h7-3h5-0h3-0-3p0-0-3p0-3p0-0-3p0-0-3br
    
    e-------------------------------------------
    B-------------------------------------------
    G--------------3bvvvvvvvv-10-10-------12-12
    D-------------------------10-10-10-10-12-12
    A--------------------------8--8-10-10-10-10
    E-0-3p0-0-3p0-0------------------8--8-------
    

    Тональность:

    Нет текста!



    Назад
    Рекомендуем посмотреть другие песни исполнителя «Red Hot Chili Peppers»:

    • Комментарии Facebook ()
    • Комментарии ВКонтакте



    Добавить в Избранное Браузера
    Сохранить здесь Очистить


    x

    0


    +
    -

    +
    -

    -

    Авторизация





    Зарегистрироваться

    M

    Дата и время

    • 19:05:41
       

    Социальные ссылки


    Наши приложения

    • Muzbank App Play Market
    • Muzbank Amazon App