MUZBANK



A Most Complete Bank Of Music Information

МУЗЫКАЛЬНО-ИНФОРМАЦИОННЫЙ БАНК

Поиск по сайту







    RReel Big Fish • Sr (аккорды и текст - chords & lyrics)


    224

    Print

    Видео «Sr (Reel Big Fish)»

    Видео клипы к песне подбираются автоматически сайтом youtube. Возможны некоторые несоответствия клипов песне.

    ↑ Спрятать рекламу ↑



    Download


     
    
    
    ------------------------------------------------------------
                                   S.R. - Reel Big Fish
    ------------------------------------------------------------
    
    thanks to Calum Neil (calumneil@hotmail.com) for this tab!
    
    main riff:
           B       E/F#  
    e||----7---7---7/9--9---||16x   
    B||----7---7---9/11-11--||   
    G||*-x-8---8-x-9/11-11-*||         
    D||*-x(9)-(9)x---------*||        
    A||--x(9)-(9)x----------||
    E||---------------------||    
    
    then main riff w/o slide:
           B       E   F#
    e||----7---7---7---9---||4x             
    B||----7---7---9---11--||          
    G||*-x-8-x-8-x-9-x-11-*||      
    D||*-x(9)x(9)x---x----*||             
    A||--x(9)x(9)x---x-----||        
    E||--------------------||        
    
    then:
         B   F#  E   F#      B   F#  E
    e||-------------------||-----------------|
    B||-----------------2x||-------------r-r-|
    G||*-4-4-------------*||-4-4---------e-e-|
    D||*-4-4-4-4-2-2-4-4-*||-4-4-4-4-2-2-s-s-|
    A||--2-2-4-4-2-2-4-4--||-2-2-4-4-2-2-t-t-|
    E||------2-2-0-0-2-2--||-----2-2-0-0-----|
    
    then, main riff 8x
    
    then, main riff 4x w/little muted guitar riff:
    
    e||-------------------||
    B||-----------------4x||
    G||*-----------------*||
    D||*-----------------*||
    A||--9-9-6--66--------||
    E||-------------77-7--||
        (pm.............) 
    Thanks:)
     

    Тональность:

    Нет текста!



    Назад
    Рекомендуем посмотреть другие песни исполнителя «Reel Big Fish»:

    • Комментарии Facebook ()
    • Комментарии ВКонтакте



    Добавить в Избранное Браузера
    Сохранить здесь Очистить


    x

    0


    +
    -

    +
    -

    -

    Авторизация





    Зарегистрироваться

    M

    Дата и время

    • 13:09:49
       

    Социальные ссылки


    Наши приложения

    • Muzbank App Play Market
    • Muzbank Amazon App