MUZBANK



A Most Complete Bank Of Music Information

МУЗЫКАЛЬНО-ИНФОРМАЦИОННЫЙ БАНК








    RRelient K • Breakdown (аккорды и текст - chords & lyrics)


    234

    Print

    Видео «Breakdown (Relient K)»

    Видео клипы к песне подбираются автоматически сайтом youtube. Возможны некоторые несоответствия клипов песне.

    ↑ Спрятать рекламу ↑





     
    
    
    Breakdown by Relient K
    Standard Tuning
    
    (Intro)
    G:----------------
    D:----------------
    A:5----2----5--7-7
    E:----------------
    
    G:------------------------------------
    D:------------------------------------ X2
    A:-0-0-0-0-0-4-5-5-5-5-5-2-2-2-2-5-7-7
    E:------------------------------------
    
    G:---------------
    D:---------------
    A:0-0-0-0-0-0-0-0
    E:---------------
    
    G:------------------------------------
    D:------------------------------------ 
    A:-0-0-0-0-0-4-5-5-5-5-5-2-2-2-2-5-7-7
    E:------------------------------------
    
    G:---------------
    D:---------------
    A:0-0-0-0-0-0-0-0
    E:---------------
    
    G:------------------
    D:-------------2-2-2  X4
    A:-5-7-0-2-2-2------
    E:------------------
    
    G:---------------------------
    D:----------------------2-2-2  X4
    A:5-5-5-5-7-7-7-7-0-0-0------
    E:---------------------------
    
    (1.54)
    G:---------
    D:---------  X5
    A:0-------5
    E:---------
    
    G:----------------
    D:----------------
    A:5----2----5--7-7
    E:----------------
    
    G:------------------------------------
    D:------------------------------------  
    A:-0-0-0-0-0-4-5-5-5-5-5-2-2-2-2-5-7-7
    E:------------------------------------
    
    G:------------------------------
    D:-----------------------2-2-2-2  X10
    A:-2-2-2-2-5-5-5-5-0-0-0--------
    E:------------------------------
    
    Thanks, please rate after you learn.
    Tabbed by:
    _TheBassist01_
     

    Тональность:

    Нашли ошибку?



    Назад
    Рекомендуем посмотреть другие песни исполнителя «Relient K»:

    • Комменты Fb ()
    • Комменты ВК



    Добавить в Избранное Браузера
    Сохранить здесь Очистить


    x

    0


    +
    -

    +
    -

    -

    Авторизация





    Зарегистрироваться

    M

    Дата и время

    • 01:58:18
       

    Социальные ссылки


    Наши приложения

    • Muzbank App Play Market
    • Muzbank Amazon App