MUZBANK



A Most Complete Bank Of Music Information

МУЗЫКАЛЬНО-ИНФОРМАЦИОННЫЙ БАНК

Поиск по сайту







    RRelient K • Chapstick Chapped Lips And Things Like (аккорды и текст - chords & lyrics)


    225

    Print

    Видео «Chapstick Chapped Lips And Things Like (Relient K)»

    Видео клипы к песне подбираются автоматически сайтом youtube. Возможны некоторые несоответствия клипов песне.

    ↑ Спрятать рекламу ↑



    Download


     
    
    
    Chapstick, chapped lips, and things like chemistry by Relient K
    Standard Tuning
    
    (Intro)
    G:------------------|
    D:------------------|  x2
    A:------2-----------|
    E:0-2-4---0--0-0-0-2|
    
    G:---------|      |----------|
    D:---------|  x3  |----------|
    A-----2----|      |2--------2|
    E:0-2---0-2|      |-----0-2--|
    
    G:---------|
    D:---------|
    A:2--1-----|
    E:-----4--2|
    
    G:------------------|
    D:------------------|  x2
    A:------2-----------|
    E:0-2-4---0--0-0-0-2|
    
    G:---------|      |----------|
    D:---------|  x3  |----------|
    A-----2----|      |2--------2|
    E:0-2---0-2|      |-----0-2--|
    
    G:----------|
    D:----------|
    A:----------|
    E:4--2--0--2|
    
    G:-----------|      |---------|
    D:-----------|  x3  |---------|
    A:2-2-2-2----|      |---------|
    E:--------0-2|      |-4--2--0-|
    
    G:---------------------------------------|
    D:---------------------------------------|  x7
    A:---------2-2-2-2--2-2--1-1-1-1--2-2-2-2|
    E:0-0-0-0--------------------------------|
    
    (Outro)
    G:------------|
    D:------------|
    A:---2---1---2|
    E:0-----------|
    
    Thanks, please rate it after you learn it.
    Tabbed by:
    _TheBassist01_
     

    Тональность:

    Нет текста!



    Назад
    Рекомендуем посмотреть другие песни исполнителя «Relient K»:

    • Комментарии Facebook ()
    • Комментарии ВКонтакте



    Добавить в Избранное Браузера
    Сохранить здесь Очистить


    x

    0


    +
    -

    +
    -

    -

    Авторизация





    Зарегистрироваться

    M

    Дата и время

    • 16:47:45
       

    Социальные ссылки


    Наши приложения

    • Muzbank App Play Market
    • Muzbank Amazon App