MUZBANK



A Most Complete Bank Of Music Information

МУЗЫКАЛЬНО-ИНФОРМАЦИОННЫЙ БАНК

Поиск по сайту







    RRelient K • College Kids (аккорды и текст - chords & lyrics)


    222

    Print

    Видео «College Kids (Relient K)»

    Видео клипы к песне подбираются автоматически сайтом youtube. Возможны некоторые несоответствия клипов песне.

    ↑ Спрятать рекламу ↑



    Download


     
    
    
    College Kids by Relient K
    Standard Tuning
    
    G:-----------------------|
    D:-----------------------|  x2
    A:3~--0(16)--------------|
    E:-----------1(16)--3(16)|
    
    G:-----------------------|
    D:-----------------------|
    A:3(16)--0(16)-----------|
    E:--------------1(16)--3~|
    
    G:----------------|
    D:--0-3-5----0-3-5|
    A:3--------3------|
    E:----------------|
    
    G:-----------------|
    D:-----------------|  x3
    A:3(16)--0(8)------|
    E:-------------1(8)|
    
    G:--------------------|
    D:--------------------|
    A:3(16)--0(8)--0------|
    E:----------------0--1|
    
    G:-----------------|
    D:-----------------|  x2
    A:3(16)------------|
    E:-------1(8)--3(8)|
    
    G:----------------|
    D:--0-3-5----0-3-5|
    A:3--------3------|
    E:----------------|
    
    G:-----------------|
    D:-----------------|  x3
    A:3(16)--0(8)------|
    E:-------------1(8)|
    
    G:--------------------|
    D:--------------------|
    A:3(16)--0(8)--0------|
    E:----------------0--1|
    
    G:-----------------|      |----------|
    D:-----------------|  x2  |----------|
    A:3(16)------------|      |3~--------|
    E:-------1(8)--3(8)|      |----------|
    
    G:------------------|
    D:------------------|
    A:-----3-3-------0--|
    E:1-1-------3-3----3|
    
    G:----------------------|      |----------|
    D:----------------------|  x2  |----------|
    A:0--------3--0--------3|      |----------|
    E:---3--1--------3--1---|      |1----3----|
    
    G:---------------0|
    D:---------0--3---|
    A:------3---------|
    E:1--3------------|
    
    G:----------------|
    D:--0-3-5----0-3-5|
    A:3--------3------|
    E:----------------|
    
    G:-----------------|
    D:-----------------|  x2
    A:3(16)------------|
    E:-------1(8)--3(8)|
    
    G:--------------------------|
    D:--------------------------|
    A:3(16)--0(16)--------------|
    E:--------------1(16)--3(16)|
    
    G:-----------------------|
    D:-----------------------|
    A:3(16)--0(16)-----------|
    E:--------------1(16)--3~|
    
    (Outro)
    G:--------------|
    D:--------------|
    A:3~------------|
    E:--------------|
    
    Thanks, please rate it after you learn it.
    Tabbed by:
    _TheBassist01_
     

    Тональность:

    Нет текста!



    Назад
    Рекомендуем посмотреть другие песни исполнителя «Relient K»:

    • Комментарии Facebook ()
    • Комментарии ВКонтакте



    Добавить в Избранное Браузера
    Сохранить здесь Очистить


    x

    0


    +
    -

    +
    -

    -

    Авторизация





    Зарегистрироваться

    M

    Дата и время

    • 16:38:07
       

    Социальные ссылки


    Наши приложения

    • Muzbank App Play Market
    • Muzbank Amazon App