MUZBANK



A Most Complete Bank Of Music Information

МУЗЫКАЛЬНО-ИНФОРМАЦИОННЫЙ БАНК

Поиск по сайту







    RRelient K • Forward Motion (аккорды и текст - chords & lyrics)


    270

    Print

    Видео «Forward Motion (Relient K)»

    Видео клипы к песне подбираются автоматически сайтом youtube. Возможны некоторые несоответствия клипов песне.

    ↑ Спрятать рекламу ↑



    Download


     
    
    
    Forward Motion by Relient K
    Standard Tuning
    
    (Intro)
    G:-------------------|
    D:------1--------1---|
    A:1--------1---------|
    E:---4--------4-----2|
    
    G:----------------------|
    D:----------------------|  x2
    A:4(8)--------1(8)------|
    E:------4(8)--------2(8)|
    
    G:----------|
    D:----------|  x2
    A:4---------|
    E:---4--6--2|
    
    G:-------------------|
    D:------1--------1---|
    A:1--------1---------|
    E:---4--------4-----2|
    
    G-----------|
    D:----------|  x2
    A:4--3--1--1|
    E:----------|
    
    G:----------|      |-----------------------|
    D:----------|  x4  |-----------------------|
    A:4-----1---|      |-----------------------|
    E:---4-----2|      |2-2--2-2--2-2--2-2--2-4|
    
    G:----------------------|
    D:----------------------|  x2
    A:4(8)--------1(8)------|
    E:------4(8)--------2(8)|
    
    G:----------|
    D:----------|  x2
    A:4---------|
    E:---4--6--2|
    
    G:-------------------|
    D:------1--------1---|
    A:1--------1---------|
    E:---4--------4-----2|
    
    G-----------|
    D:----------|  x2
    A:4--3--1--1|
    E:----------|
    
    G:----------|      |-----------------------|
    D:----------|  x4  |-----------------------|
    A:4-----1---|      |-----------------------|
    E:---4-----2|      |2-2--2-2--2-2--2-2--2-4|
    
    G:----------|
    D:----------|  x4
    A:4---------|
    E:---4--6--2|
    
    G:-----------------------|
    D:-----------------------|
    A:-----------------------|
    E:2-2--2-2--2-2--2-2--2-4|
    
    (Outro)
    G:--------------------------|
    D:--------------------------|
    A:-------------------------4|
    E:2-2--2-2--2-2--2-2--2-4---|
    
    Thanks, please rate after you learn it.
    Tabbed by:
    _TheBassist01_
     

    Тональность:

    Нет текста!



    Назад
    Рекомендуем посмотреть другие песни исполнителя «Relient K»:

    • Комментарии Facebook ()
    • Комментарии ВКонтакте



    Добавить в Избранное Браузера
    Сохранить здесь Очистить


    x

    0


    +
    -

    +
    -

    -

    Авторизация





    Зарегистрироваться

    M

    Дата и время

    • 16:58:10
       

    Социальные ссылки


    Наши приложения

    • Muzbank App Play Market
    • Muzbank Amazon App