MUZBANK



A Most Complete Bank Of Music Information

МУЗЫКАЛЬНО-ИНФОРМАЦИОННЫЙ БАНК

Поиск по сайту







    RRelient K • Pressing On (аккорды и текст - chords & lyrics)


    176

    Print

    Видео «Pressing On (Relient K)»

    Видео клипы к песне подбираются автоматически сайтом youtube. Возможны некоторые несоответствия клипов песне.

    ↑ Спрятать рекламу ↑



    Download



     
    
    
    Relient K  
    Pressing On
    The Anatomy Of The Tongue In Cheek
    Standard Tuning
    Tabbed By Mike, NewFoundWeez182@aol.com
    (Strumming Not Shown)
    
    
    Intro Gt1
    E--------------------------
    B--------------------------
    G--------------------------
    D---3h4---3-1---3h4---3-1--
    A-4-----------1------------
    E-------4-----------2------
    
    Gt2
    E----------
    B----------
    G-6--------
    D-6-6-8-4--
    A-4-6-8-4--
    E---4-6-2—
    
    Verse (on last time play with out PM)
    E----------
    B----------
    G-6-6-3----
    D-6-6-3-4--
    A-4-3-1-4--
    E-------2—-
    PM* * * *
    
    Pre-Chorus
    E-------------------------------|------
    B-------------------------------|------
    G-6/8--6/8—-10/11—-10/11---6----|------
    D-6/8--6/8—-10/11—-10/11---x-6--|-4-6--
    A-4/6--4/6---8/-9---8/-9---4-6--|-4-6--
    E----------------------------4--|-2-4—
    
    Chorus
    E----------|------
    B----------|------
    G-6--------|------      
    D-6-6-8-4—-|-4/6--
    A-4-6-8-4--|-4/6--
    E---4-6-2--|-2/4—-
    
    (Verse)
    (Pre-Chorus)
    (Chorus)
    (Intro)
    (Chorus)
    
    Bridge
    E-----------------------------------------------------------------
    B-----------------------------------------------------------------
    G-6---6---6---6---5---5---5---5---6---6---6---6---8---8---8---5---
    D---6---6---6---6---6---6---6---6---6---6---6---6---6---6---6---6-
    A-----------------------------------------------------------------
    E-----------------------------------------------------------------
    
    Ending
    E--------------
    B--------------
    G---------6~~--
    D-4~~-6~~-6~~--
    A-4~~-6~~-4~~--
    E-2~~-4~~------
    
    A very good and easy song. Im pretty certain that this tab is correct,
    but if you have any corrections, then just e-mail me.
     

    Тональность:

    Нет текста!



    Назад
    Рекомендуем посмотреть другие песни исполнителя «Relient K»:

    • Комментарии Facebook ()
    • Комментарии ВКонтакте



    Добавить в Избранное Браузера
    Сохранить здесь Очистить


    x

    0


    +
    -

    +
    -

    -

    Авторизация





    Зарегистрироваться

    M

    Дата и время

    • 09:17:17
       

    Социальные ссылки


    Наши приложения

    • Muzbank App Play Market
    • Muzbank Amazon App