MUZBANK



A Most Complete Bank Of Music Information

МУЗЫКАЛЬНО-ИНФОРМАЦИОННЫЙ БАНК

Поиск по сайту







    RReminition • Storm Cloud (аккорды и текст - chords & lyrics)


    255

    Print

    Видео «Storm Cloud (Reminition)»

    Видео клипы к песне подбираются автоматически сайтом youtube. Возможны некоторые несоответствия клипов песне.

    ↑ Спрятать рекламу ↑



    Download


     
    
    
    song: Storm cloud
    Artist: Reminition
    
    
    intro
    
    e|---------------------------------------|
    b|---------------------------------------|
    g|---------------------------------------|
    d|------7--------3---------9----------5--|
    a|----5-------1---------7---------3------|
    d|--o-------0--------0---------0---------|
    
    verse
    
    e|------------------------------------|
    b|------------------------------------|
    g|------------------------------------|
    d|----0-xxxxxxxx---3-xxxx---1-xxxx----|
    a|----0-xxxxxxxx---3-xxxx---1-xxxx----|
    d|----0-xxxxxxxx---3-xxxx---1-xxxx----|
    
    chorus
    
    e|-------------------------------------------|
    b|-------------------------------------------|
    g|-------------------------------------------|
    d|--00000000--3333-2222-00000000--5555-3333--|
    a|--00000000--3333-2222-00000000--5555-3333--|
    d|--00000000--3333-2222-00000000--5555-3333--|
    
    
    interlude
    
    e|-------------------|
    b|-------------------|
    g|-------------------|
    d|---7---3---9---5---|
    a|---5---1---7---3---|
    d|---0---0---0---0---|
    
    
    intro x4
    verse x4
    chorus x2
    verse x4
    chorus x2
    verse x4
    chorus x2
    inter x2
    chorus x4
    intro x4
     

    Тональность:

    Нет текста!



    Назад
    Рекомендуем посмотреть другие песни исполнителя «Reminition»:

    • Комментарии Facebook ()
    • Комментарии ВКонтакте



    Добавить в Избранное Браузера
    Сохранить здесь Очистить


    x

    0


    +
    -

    +
    -

    -

    Авторизация





    Зарегистрироваться

    M

    Дата и время

    • 17:39:55
       

    Социальные ссылки


    Наши приложения

    • Muzbank App Play Market
    • Muzbank Amazon App