MUZBANK



A Most Complete Bank Of Music Information

МУЗЫКАЛЬНО-ИНФОРМАЦИОННЫЙ БАНК

Поиск по сайту







    RRey Patricio • Alien Dulce (аккорды и текст - chords & lyrics)


    215

    Print

    Видео «Alien Dulce (Rey Patricio)»

    Видео клипы к песне подбираются автоматически сайтом youtube. Возможны некоторые несоответствия клипов песне.

    ↑ Спрятать рекламу ↑



    Download


     
    
    
    Intro
    G|-------------|x8
    D|-------------|
    A|-3h5-555555--|
    E|-------------|
    
    Verso **2 VECES**
    G|------------|------------|
    D|------------|------------|
    A|-3h5-555555-|------------|
    E|------------|-1h3-333333-|
    
     |------------|------------|
     |------------|------------|
     |-3h5-555555-|-3h5-555555-|
     |------------|------------|
    
    Puente
    G|-------|x2
    D|-------|
    A|-3-3-3-|
    E|-------|
    
    Verso **2 VECES**
    G|------------|------------|
    D|------------|------------|
    A|-3h5-555555-|------------|
    E|------------|-1h3-333333-|
    
     |------------|------------|
     |------------|------------|
     |-3h5-555555-|-3h5-555555-|
     |------------|------------|
    
    Puente
    G|-------|x2
    D|-------|
    A|-3-3-3-|
    E|-------|
    
    Coro
    G|-----------------|x4
    D|-----------------|
    A|-----------1111--|
    E|-0000--33--------|
    
     |----------------|
     |----------------|
     |----------------|
     |-0(x15)-1(x15)--|
    
    Pre-Verso
    G|------------|x4
    D|------------|
    A|-3h5-555555-|
    E|------------|
    
    Verso **2 VECES**
    G|------------|------------|
    D|------------|------------|
    A|-3h5-555555-|------------|
    E|------------|-1h3-333333-|
    
     |------------|------------|
     |------------|------------|
     |-3h5-555555-|-3h5-555555-|
     |------------|------------|
    
    Puente
    G|-------|x2
    D|-------|
    A|-3-3-3-|
    E|-------|
    
    Coro
    G|-----------------|x4
    D|-----------------|
    A|-----------1111--|
    E|-0000--33--------|
    
     |---------|
     |---------|
     |---------|
     |-0(x15)--|
    
    Final
    G|-----------------|x8 |-----|
    D|-----------------|   |-----|
    A|-----------1111--|   |-----|
    E|-0000--33--------|   |-(0)-|
    
    Escuch? la canci?n para saber el ritmo
     

    Тональность:

    Нет текста!



    Назад
    Рекомендуем посмотреть другие песни исполнителя «Rey Patricio»:

    • Комментарии Facebook ()
    • Комментарии ВКонтакте



    Добавить в Избранное Браузера
    Сохранить здесь Очистить


    x

    0


    +
    -

    +
    -

    -

    Авторизация





    Зарегистрироваться

    M

    Дата и время

    • 13:17:51
       

    Социальные ссылки


    Наши приложения

    • Muzbank App Play Market
    • Muzbank Amazon App