MUZBANK



A Most Complete Bank Of Music Information

МУЗЫКАЛЬНО-ИНФОРМАЦИОННЫЙ БАНК

Поиск по сайту







    RRhapsody • Flames Of Revenge (аккорды и текст - chords & lyrics)


    210

    Print

    Видео «Flames Of Revenge (Rhapsody)»

    Видео клипы к песне подбираются автоматически сайтом youtube. Возможны некоторые несоответствия клипов песне.

    ↑ Спрятать рекламу ↑



    Download


     
    
    
    RHAPSODY - FLAMES OF REVENGE
    Music:Staropoli and Turilli
    
    Transcribed By: Niclas Buss
    
    Email: Nbjbuss@hotmail.com
    
    Please mail me if you find mistakes!
    
    Normal Tuning (EBGDAE)!
    
    E---------------------------------------------------------------------------------|
    B-Gtr.1---------------------------------------------------------------------------|
    G--15-0-12-0-15-0-17-0-15-0-14-0-15-0-12-0-15-0-20-0-19-0-17-0-17-0-15-0-14-0-14-0|
    D-Gtr.2---------------------------------------------------------5--------------7--|
    A---5~----------------------------------------------------------3--------------5--|
    E---3~----------------------------------------------------------------------------|
    
    E---------------------------------------------------------------------------------|
    B---------------------------------------------------------------------------------|
    G-15-0-17-0-15-0-12-0-15-0-22-0-20-0-19-0-19-0-15-0-19-0-17-0-15-0-14-0-17-0-15-0-|
    D------------------------------------------------------------------------5--------|
    A------------5-----------------------------5-----------------------------3--------|
    E------------3-----------------------------3--------------------------------------|
    
    			Riff 1
    E---------------------------------------------------------------------------------|
    B---------------------------------------------------------------------------------|
    G-14-0-11-0-12-0-14-0---15-0-12-0-15-0-17-0-15-0-14-0-15-0-12-0-15-0-20-0-19-0-17-|
    D-------7-------------------------------------------------------------------------|
    A-------5----------------5--------------------------------------------------------|
    E------------------------3--3--3--3--3--3--3--3--3--3--3--3--3--3--3--3--3--3--3--|
    			   pm.....................................................
    
    E---------------------------------------------------------------------------------|
    B---------------------------------------------------------------------------------|
    G-0-17-0-15-0-14-0-14-0-15-0-17-0-15-0-12-0-15-0-22-0-20-0-19-0-19-0-15-0-19-0-17-|
    D----5--------------7-------------------------------------------------------------|
    A----3--------------5--------------5----------------------------------------------|
    E-3--------------------------------3--3--3--3--3--3--3--3--3--3--3--3--3--3--3--3-|
     .|				     pm..........................................|
    
    		  end Riff 1|	  		       Riff 2
    E---------------------------|---------------------------------------------11------|
    B---------------------------|-----------------------|--11--11-11-13-15-11-13-13-15|
    G-0-15-0-14-0-17-0-15-0-14-0|11-0-12-0-14--11~~~~---|*-12--12-12-14-15-12----14-15|
    D--------------5--------------2-------------7~------|*----------------------------|
    A--------------3--------------0-------------5~------|-----------------------------|
    E---------------------------------------------------------------------------------|
    
    E---------------------------------------------------------------------------------|
    B-11---------------------13--------------------------------------------------10---|
    G-12--12--12-12-14-15-12-14-14-15-12---------------------14-----------/11----11-11|
    D-----13--13-13-15-17-13----15-17-13--13--13-13-15-17-13-15-17-16-13--/12-12----12|
    A-------------------------------------15--15-15-17-18-15----18-17-15------12------|
    E---------------------------------------------------------------------------------|
    
    		    x2              Verse 1
    E------------8--------------------------------------------------------------------|
    B-----/10------10------|--11~~----|-----------------------------------------------|
    G---------11------11--*|----------|-----------------------------------------------|
    D--12-----------------*|----------|----------------------------------------5--7~--|
    A----------------------|----------|--5-5-5-5-5-5--5--5--5-5-5-5-5-5--5--5--3------|
    E---------------------------------------------------------------------------------|
    				    pm...................................|
    
    E---------------------------------------------------------------------------------|
    B---------------------------------------------------------------------------------|
    G-------10~-----------------5-------------------------6-7-6-----------------------|
    D--7-10-----10-8-7------5-----8-7-5--6---------8--7---------8-7-5-----------------|
    A------------------10---3------------4----7-10----5---------------8-7----5-5-5-5-5|
    E---------------------------------------9-----------------------------------------|
      pm...|   pm........|    pm.......|  pm........|     pm.............|  pm........
    
    												  
    E---------------------------------------------------------------------------------|
    B---------------------------------------------------------------------------------|
    G-----------------------------------------10~----------------5---------6----------|
    D----------------------------5--7~--7-10-----10-8-7------5-----5---6-----6---7----|
    A-5--5-5--5-5-5-5-5-5--5-5---3----------------------10---3---------4---------5--5-|
    E---------------------------------------------------------------------------------|
     ........................|	   pm...|   pm........|                       pm..    
    
    		    Bridge
    E---------------------------------------------------------------------------------|
    B-----------------|-------------------------------|----------|--------------------|
    G-----------------|-------------------------------|--Riff-1--|-11-0-12-0-14--12~--|
    D-------5---------|--8---7---5-----------7----7--|----------|--7-----------------|
    A-5-7-8---8-7-5---|--6---5---3---5---7---5----5--|----------|--5-------------5~--|
    E--------------------------------3---5----------------------------------------3~--|
     ..............|      
    			 Chorus
    E---------------------------------------------------------------------------------|
    B-----------|----------|----------------------------------------------------------|
    G--Verse-2--|--Bridge--|----------------------------------------------------------|
    D-----------|----------|----------------------------------------------------------|
    A-----------|----------|--6-6-6-6-6-6-6-6-6-6-6-6-6-6-6-6-------------------------|
    E---------------------------------------------------------3-3-3-3-3-3-3-3-3-3-3-3-|
    			 pm.......................................................
    
    E---------------------------------------------------------------------------------|
    B---------------------------------------------------------------------------------|
    G---------------------------------------------------------------------------------|
    D---------------------------------------------------------------------------------|
    A---------8-8-8-8-8-8-8-8-8-8-8-8-8-8-8-8-------------------------------6-6-6-6-6-|
    E-3-3-3-3---------------------------------6-6-6-6-6-6-6-6-6-6-6-6-6-6-6-----------|
     .................................................................................
    
    E---------------------------------------------------------------------------------|
    B----------------------------------------------------------|----------|--11~~-----|
    G----------------------------------------------------------|--Riff-2--|-----------|
    D-------------------------------------------------5---7----|----------|-----------|
    A-6-6-6-6-6-6-6-6---------------------------------3---5----|----------|-----------|
    E-----------------3-3-3-3-3-3-3-3-3-3-3-3-3-3-3-----------------------------------|
     ..............................................|
    							   Guitar Solo*
    E-------------------------------------------------------------13h17p13------------|
    B-----------------------------------------|--------------|--15---------15-13-11---|
    G-----------------------------------------|--Orcherstra--|----------------------14|
    D------9--------------9-------4---7-------|--------------|------------------------|
    A--9---7---9------9---7---9---2---5---4---|--------------|------------------------|
    E--7-------7------7-------7-----------2-------------------------------------------|
    							*=Verse riff during solos 
    
    E---------------------------------------------------------------------------------|
    B-11-13-15-13-11-13-11------------------------------------------------------------|
    G----------------------14-12-10---------------------------------------------------|
    D-------------------------------14-12-10----10-12-10-------------------------10-12|
    A----------------------------------------13----------13-12-10-------10-12-13------|
    E-------------------------------------------------------------12-13---------------|
    
    E--------------------------13-17~-------------------------------------------------|
    B------------------------13-------17-15-13----------------------11-13h15p13-11----|
    G----10-12-14-12-10-12-14------------------------------10-12-14----------------14-|
    D-14------------------------------------------10-12-14----------------------------|
    A---------------------------------------------------------------------------------|
    E---------------------------------------------------------------------------------|
    
    E--------------------------12-13-15h17p15-13-12--17-15-13-------------------------|
    B-----------------11-13-15--------------------------------17-15-18-17-15----------|
    G-12-10--10-12-14--------------------------------------------------------17-15-14-|
    D---------------------------------------------------------------------------------|
    A---------------------------------------------------------------------------------|
    E---------------------------------------------------------------------------------|
    
    								      w/Riff 3
    E---------------------------------------------------------------------------------|
    B----------------|-----------------|----------|----------|----------|---11--11-11-|
    G----------------|--Keyboard-Solo--|--Bridge--|--Chorus--|--Riff-2--|-------------|
    D-15-17-15-14~~--|-----------------|----------|----------|----------|-------------|
    A----------------|-----------------|----------|----------|----------|-------------|
    E---------------------------------------------------------------------------------|
    
    E----------11---------------------------------------------------------------------|
    B-13-14-11----13-14-11---------------------13-------------------------------------|
    G-----------------------11--11-11-13-15-11----13-15-11----------------------13----|
    D--------------------------------------------------------13--13-13-15-16-13----15-|
    A---------------------------------------------------------------------------------|
    E---------------------------------------------------------------------------------|
    
    					    Riff 3
    E-------------------------------11------------------------------------------------|
    B---------------13--------13-------13-----|---------------------------------------|
    G---------14-------14--------14-------14--|---------------------------------------|
    D-16-13------15-------15------------------|---------------------------------------|
    A-----------------------------------------|---------------------------------------|
    E--------------------------------------------6-6-6-6-6-6-6-6-6-6-6-6-6-6-6-6-2-2-2|
    					    pm....................................
    
    E---------------------------------------------------------------------------------|
    B----------------------------------------------------------------------|----------|
    G----------------------------------------------------------------------|----------|
    D------------------------------------------------------------7---7-10--|----------|
    A-----------------------6-6-6-6-6-6-6-6-6-6-6-6-6-6-6-6-6--8-----------|---6~~----|
    E-2-2-2-2-2-2-2-2-2-2-2----------------------------------------------------4~~----|
     .........................................................|
    
    E-----------|
    B-----------|
    G-----------| end
    D-----------|
    A----6-----|
    E----4-----|
    
    TABLATURE EXPLANATION
    ----------------------
    h= hammer on
    
    p= pull off
    
    pm..|= palm mute
    
    /= slide up
    
    = slide down
    
    |     |
    |     |
    |*   *| = repeat from * to *
    |*   *| 
    |     |
     

    Тональность:

    Нет текста!



    Назад
    Рекомендуем посмотреть другие песни исполнителя «Rhapsody»:

    • Комментарии Facebook ()
    • Комментарии ВКонтакте



    Добавить в Избранное Браузера
    Сохранить здесь Очистить


    x

    0


    +
    -

    +
    -

    -

    Авторизация





    Зарегистрироваться

    M

    Дата и время

    • 23:34:18
       

    Социальные ссылки


    Наши приложения

    • Muzbank App Play Market
    • Muzbank Amazon App