MUZBANK



A Most Complete Bank Of Music Information

МУЗЫКАЛЬНО-ИНФОРМАЦИОННЫЙ БАНК

Поиск по сайту







    RRhapsody • Gargyoles Angles Of Darkness (аккорды и текст - chords & lyrics)


    226

    Print

    Видео «Gargyoles Angles Of Darkness (Rhapsody)»

    Видео клипы к песне подбираются автоматически сайтом youtube. Возможны некоторые несоответствия клипов песне.

    ↑ Спрятать рекламу ↑



    Download


     
    
     Normal Tuning 
    *************************************
    * Part I: Angeli di Pietra Misctica *
    *************************************
    
      Acoustic Guitar Intro (Sascha Paeth)
    E-----------------------------------------------------------------------------------|
    B---0~--1p0----0--------------------------------------------------0-h1p0---0-1--1/3-|
    G-----------2------------0---0---0---0-----0-----0-----0-----0~---------2----------|
    D---------------------4----4---4---4----4-----4-----4-----4-------------------------|
    A-----------------------------------------------------------------------------------|
    E-----------------0~~---------------------------------------------------------------|
    
    E-------------------------------------------------------------------2-h3p2p0---0----|
    B--1--0~------------------------------0-----------0--------------------------3---1-h|
    G-----------------0---0---0---0---0-------0---0-------0---0~------------------------|
    D--------------4----4---4---4---4---4---4---4---4---4---4---------------------------|
    A-----------------------------------------------------------------------------------|
    E---------0~~-------------------------------------------------0~~-------------------|
    
    E--------0----------------0-------0-----0-----0-----0-----0-----0-----0-----0-----0-|
    B3p1p0------0----------------0------0-----0-----0-----0-----0-----0-----0-----0-----|
    G------2-------2-/-4~-----------4-----4-----4-----4-----4-----4-----2-----0---------|
    D-------------------------------------------------------------------------------4---|
    A-----------------------------------------------------------------------------------|
    E---------------------0~~-----------------------------------------------------------|
    
    E-----0-----0-----0-----0-----0-----0-----0-------0~-------------0----0----0----0---|
    B-0-----0-----0-----0-----0-----0-----0-----0-----0~--0----------1p0--1p0--1p0--1p0-|
    G-----------------------------------------------------0----------2----2----2----2---|
    D---2-----0-------------------------------------------4----------2----2----2----2---|
    A---------------3-----2-----0-----------------------------7------0----0----0----0---|
    E---------------------------------3-----2-----0~~------------0~~--------------------|
    
    E-0----0----)0~-------------0-------------------------------------------------------|
    B-1p0--1p0--(0~-----------1----3--1h3p1p0----------------------------0h1~--3~--1-0h1|
    G-2----2----)0~-------0h2-----------------2-0-2-0-----------------------------------|
    D-2----2----(2~---/-3-----------------------------3-2h3p2p0h2-----------------------|
    A-0----0----)2~---------------------------------------------------------------------|
    E-----------(0~------------------------------------------------0~-------------------|
    
    E----------------0-------0-------0-------0-------0-------0--------0-----------0-----|
    Bp0-------------------------0-------0-------0-------0-------0--------0-----0-----0--|
    G---2-0--2--2/4----------------4-------4-------4-------4-------4--------4--------4/5|
    D-----------------------------------------------------------------------------------|
    A-----------------------------------------------------------------------------------|
    E-------------------0~--------------------------------------------------------------|
    
    E--0---0--0--0--0--0----------------------0~~---------------------------------------|
    B------0--0--0--0--0---------------------------------0~~-----0----------------------|
    G------4--4--4--4--4---------0~~----------0~~--------0~~----0---0------------------0|
    D----------------------------4~~----------4~~--------------4-------4-----------2--2-|
    A---------------------------------------------------------2-----------2-------2--2--|
    E----------------------0~~----------0~~---------0~~------0---------------3p2-0------|
    
    E-----------0--------------------------------------------------------------------7-7|
    B-------0--0--0-------------------------5-7-/8-7h8p7-5-----------------------7--7---|
    G---0--0--0--0---0------------------5--5---------------7-5-4~------------8--8--8----|
    D--2--2-----2---2---2--2--2-----7--7--7------------------------------9--9--9--------|
    A-2------------2---2--2--2-----7--7---------------------------------9--9------------|
    E-----------------3--2--0---/-5--------------------------------7--7----------------|
    
    E-9-/11--7--9--11--12~---------------------------------------------------~~-----|
    B------------------------------------------0-----------------------~~--------|--|
    G------------------------------------0---0-------0---0-------~~--------------|--|
    D------------------------------4---4---4-------4---4-----------------------------|-/|
    A----------------------------2---2-----------2-----------------------------------|--|
    E------------------------0~-----------------------------0~~-------------------------|
    
    E------0-----0-----0-----0---0---0-----0-----0-----0-----0---0---0------0-----0-----|
    B----0-----0-----0-----0-------------0-----0-----0-----0--------------0-----0-----0-|
    G--------4-----2-----0-------------------4-----2-----4-----5---4----------4-----2---|
    D--2-----------------------1---4--2-------------------------------2---------------|
    A-----------------------------------------------------------------------------------|
    E-----------------------------------------------------------------------------------|
    
                                                          Acoustic Guitar 1:
    E-0-----0---0---0------0-----0-----0-----0---0---0--|-------0-----0-----0-----0---0-|
    B-----0--------------0-----0-----0-----0---3--------|-----0-----0-----0-----0-------|
    G---0--------------------4-----2-----4---------5----|---------4-----2-----0---------|
    D---------1---4---2--------------------------------|---2-----------------------1---|
    A---------------------------------------------------|-------------------------------|
    E---------------------------------------------------|-------------------------------|
                                                        | Acoustic Guitar 2:            |
                                                       E|---7-7------------------------|
                                                       B|---8-8------------------------|
                                                       G|---9-9------------------------|
                                                       D|---9-9--5~----4~--------------|
                                                       A|---7-7--------------7~----6~--|
                                                       E|-------------------------------|
    
    E----0------0-----0-----0-----0---0---0---------0------0-----0-----0---0---0-------0|
    B---------0-----0-----0-----0-----------------0------0-----0-----0---------------0--|
    G-------------4-----2-----4-----5---4--------------4-----2-----0--------------------|
    D--4---2-----------------------------------2------------------------1---4----2----|
    A-----------------------------------------------------------------------------------|
    E-----------------------------------------------------------------------------------|
                                                                                        |
    E---------------------------------------7-7--7-7-----------------------------------|
    B---------------------------------------8-8--8-8-----------------------------------|
    G---------------------------------------9-9--9-9-----------------------------------|
    D-------------5~----4~----5~----7~--5~--9-9--9-9--5~----4~-------------------------|
    A--3~---2~-----------------------------------7-7--------------7~----6~--3~----2~---|
    E-----------------------------------------------------------------------------------|
    
    E-----0-----0-----0---0---0-------0-----0-----0-----0---0---0------0-----0-----0----|
    B---0-----0-----0---3-----------0-----0-----0-----0--------------0-----0-----0-----0|
    G-4-----2-----4---------5-----------4-----2-----0--------------------4-----2-----4--|
    D-----------------------------2-----------------------1---4---2--------------------|
    A-----------------------------------------------------------------------------------|
    E-----------------------------------------------------------------------------------|
                                                                                        |
    E------------------(7)-(7)-7--7-7--------------------------------------------------|
    B------------------(8)-(8)-8--8-8--------------------------------------------------|
    G------------------(9)-(9)-9--9-9--------------------------------------------------|
    D-5~----4~----5~---/9~--7~-9--9-9--5~----4~-------------------------5~----4~----5~-|
    A------------------(7)-(7)-7--7-7--------------7~----6~--3~---2~-------------------|
    E-----------------------------------------------------------------------------------|
    
    E-0---0---0-----0-----0-----0-----0---0---0------0-----0-----0-----0---0---0-------||
    B-------------0-----0-----0-----0--------------0-----0-----0-----0---3-------------||
    G---5---4---------4-----2-----0--------------------4-----2-----4---------5---------||
    D----------2-----------------------1---4---2-------------------------------------||
    A----------------------------------------------------------------------------------||
    E----------------------------------------------------------------------------------||
                                                                    (end Acoustic Intro)|
    E-----------7-7----------------------------------------------------(7)-(7)--)7~~--||
    B-----------8-8----------------------------------------------------(8)-(8)--(7~~--||
    G-----------9-9----------------------------------------------------(9)-(9)--)8~~--||
    D---7~--5~--9-9--5~----4~-------------------------5~----4~----5~---/9~--7~--(9~~--||
    A-----------7-7--------------7~----6~--3~---2~---------------------(7)-(7)--)9~~--||
    E----------------------------------------------------------------------------(7~~--||
    
      Riff 1 (Distortion Guitar)
    E-----------------------------------------------------------------------------------|
    B-----------------------------------------------------------------------------------|
    G*------------------------------------7---------------------------------------------|
    D*--9--9-9-9--7---------9--9-9-9--7-9---10-9--9-9-9--7---------------7-10p9p7------|
    A---------------10-6/9----------------------------------10-6/9----6-9----------10-9-|
    E---------------------------------------------------------------6-------------------|
                      pm..|                                   pm...........|      pm....
    
                                       x4            (end Intro)    Verse 1
    E-----------------------------------------------------------||----------------------|
    B-------------------------------------|--8~~-/--/--/-----||----------------------|
    G--------------8h9p8-----------------*|--9~~-/--/--/----||*---------------------|
    D---------7-10-------10p9p7----------*|--9~~-/--/--/----||*---------------------|
    A76--6-9-------------------10p9p7----|--7~~-/--/--/----||----------------------|
    E----------------------------------------------------------||----------------------|
     ........|
    
    .............. under construction ............
     

    Тональность:

    Нет текста!



    Назад
    Рекомендуем посмотреть другие песни исполнителя «Rhapsody»:

    • Комментарии Facebook ()
    • Комментарии ВКонтакте



    Добавить в Избранное Браузера
    Сохранить здесь Очистить


    x

    0


    +
    -

    +
    -

    -

    Авторизация





    Зарегистрироваться

    M

    Дата и время

    • 15:40:01
       

    Социальные ссылки


    Наши приложения

    • Muzbank App Play Market
    • Muzbank Amazon App