MUZBANK



A Most Complete Bank Of Music Information

МУЗЫКАЛЬНО-ИНФОРМАЦИОННЫЙ БАНК

Поиск по сайту







    RRhapsody • Land Of Immortals (аккорды и текст - chords & lyrics)


    234

    Print

    Видео «Land Of Immortals (Rhapsody)»

    Видео клипы к песне подбираются автоматически сайтом youtube. Возможны некоторые несоответствия клипов песне.

    ↑ Спрятать рекламу ↑



    Download


     
    
    
    ****************************************************************************
    * RHAPSODY - LAND OF IMMMORTALS (REMAKE!) (From the single: EMERALD SWORD) *
    ****************************************************************************
     Music & Words by: Alex Starpoli/Luca Turilli
    
    (Based on the tab by Valerio Santinelli,  )
    Transcribed By: Niclas Buss
    Date tabbed: 28.6.2000
    email: nbjbuss@hotmail.com
           
    ===================================
    = Note: The whole song is in Cmin =
    ===================================
    
    -----------------------------
    
     Normal Tuning!!
    
      Gtr.1 (Riff 1)
    E--------------------------------------------------------6h8p6--------------------|
    B------------------------------8----------------6---6-8--------9-8-6h8p6----------|
    G---7-8--7h8h10-7------10-8h10---8-----7-8--7h8---8----------------------8--7-8-7h|
    D-Gtr.2(Riff-1A)--8--8--7----------10----5-----------------5---------4--------5---|
    A--5-/10-------------5--5--------------5-3--------------5--3------5--2------5-3---|
    E--3-/8--------------3-----------------3----------------3---------3---------3-----|
    
    E------------------------------11h13p11-------------------------------------------|
    B--------------------8-8-9-11-----------15-13-11h13p11----------------------------|
    G8h10-7------10-8h10-----------------------------------13-12-10~---8h10-12~~------|
    D-------8--8--7--------------------5--------------------------4----------5--------|
    A----------5--5---------------5----3-----------------------5--2-------5--3--------|
    E----------3------------------3----------------------------3----------3-----------|
    
      Gtr.2(Riff 1C) with Riff 1
    E---------------------------------------------------------------------------------|
    B---------------------------------------------------------------------------------|
    G---------------------------------------------------------------------------------|
    D----------------------------------------------------8--7~------------------------|
    A--3-3-3-32-2-2-2/5-5-5-53-3-3-3--3-3-3-3-3-3-3-3--6--5~---3-3-3-32-2-2-2/5-5-5|
    E---------------------------------------------------------------------------------|
      pm...............................................|        pm....................
    
    				       Riff 2
    E---------------------------------------------------------------------------------|
    B------------------------------------|--------------------------------------------|
    G------------------------------------|--------------------------------------------|
    D-----------------------------4--5~--|--5-------5--5-5-5---7-------7--7-7-7---8---|
    A-53-3-3-3--3-3-3-3-3-3-3-3--2--3~--|--3-3-3-3-3--3-3-3---5-5-5-5-5--5-5-5---6-6-|
    E---------------------------------------------------------------------------------|
     ...........................|		 pm....|            pm....|            pm.
    
    E---------------------------------------------------------------------------------|
    B---------------------------------------------------------------------------------|
    G---------------------------------------------------------------------------------|
    D-----8--8-8-8---7-------7--7-7-7-----5-------5--5-5-5---7-------7--7-7-7---8--10-|
    A-6-6-6--6-6-6---5-5-5-5-5--5-5-5-----3-3-3-3-3--3-3-3---5-5-5-5-5--5-5-5---6---8-|
    E---------------------------------------------------------------------------------|
      ...|            pm....|              pm....|            pm....|
    
    					      Verse 1
    E---------------------------------------------------------------------------------|
    B-------------------------------------------|-------------------------------------|
    G--7---------------------------7------------|-------------------------------------|
    D--5--5-----------------8--10--5--7--5-5~---|--5----------------------------------|
    A-------8-6-5-8-6-5-----6---8-----5--3-2~---|--3-3-3-3-3-3-3-3-3-3-3-3-3-3-3-3-3-3|
    E-------------------8-------------------------------------------------------------|
         pm..............|				pm................................|
    	
    E---------------------------------------------------------------------------------|
    B--6--4--6------------------------------------------------------------------------|
    G--5--5--5-------4----------------------------------------------------------------|
    D------------3~-----3-----------5-3-------------5---------------------------------|
    A------------2~--------2------------6-5--5--5---3-3-3-3-3-3-3-3-3-3-3-3-3-3-3-3-3-|
    E--------------------------3~------------3--3-------------------------------------|
    						 pm...............................
    
    						     Chorus
    E---------------------------------------------------------------------------------|
    B----6--4--6---------------------------------------|------------------------------|
    G----5--5--5-------3-------------4-----------------|------------------------------|
    D--------------3------3------5-----6-5-6-5-3-------|--5---3-------5---5---3-------|
    A-3------------1---------1---5---------------6-5---|--3---1---5---3---3---1-------|
    E----------------------------3--------------------------------3---------------3-5-|
     ..|
    
    E---------------------------------------------------------------------------------|
    B----------------------------------------------------------|----------|-----------|
    G----------------------------------------------------------|--Riff-2--|--Verse-2--|
    D-------3--------5---3-------5---5---3-------------5-------|----------|-----------|
    A---3-5---6-5----3---1---5---3---3---1---------3-5---6-5---|----------|-----------|
    E-7----------------------3---------------3-5-7------------------------------------|
    
    							   Guitar Solo 1
    E------------------------------------------------------------18-16-15----------18-|
    B----------|---------------|---------------|-------------|------------16-16-16----|
    G--Chorus--|--Riff-1-&-1A--|--Riff-1-&-1C--|--Orchestra--|------------------------|
    D----------|---------------|---------------|-------------|------------------------|
    A----------|---------------|---------------|-------------|------------------------|
    E---------------------------------------------------------------------------------|
    
    E-20-18~--16-16-16-15h16p15-------------18b(20)r18--16-15-16-15----15-------------|
    B---------------------------18-16-15~---------------------------18----18-16-15h16p|
    G---------------------------------------------------------------------------------|
    D---------------------------------------------------------------------------------|
    A---------------------------------------------------------------------------------|
    E---------------------------------------------------------------------------------|
    
    E-----------------------13-/22~--16-15-13-15-16-/19-20--15-18p16p15----------14---|
    B15-13h15p13h15p3h15-16---------------------------------------------18-16~------15|
    G---------------------------------------------------------------------------------|
    D---------------------------------------------------------------------------------|
    A---------------------------------------------------------------------------------|
    E---------------------------------------------------------------------------------|
    
    				 T        T	   T	    T        T        T
    E--14-17-14-17--15----15-/19~-----------------------------------------------------|
    B------------------15-----------20p16p13-20p16p13-20p16p13-20p16p13-20p16p13-20p16|
    G---------------------------------------------------------------------------------|
    D---------------------------------------------------------------------------------|
    A---------------------------------------------------------------------------------|
    E---------------------------------------------------------------------------------|
    
          T        T         T        T        T        T        T        T        T
    E---------------------------------------------------------------------------------|
    Bp13-20p16p13-20p16p13--18p15p11-18p15p11-18p15p11-18p15p11-21p15p11-20p15p11-18p1|
    G---------------------------------------------------------------------------------|
    D---------------------------------------------------------------------------------|
    A---------------------------------------------------------------------------------|
    E---------------------------------------------------------------------------------|
    
     	T        T        T        T        T        T        T        T
    E------------------------------------------------------------------------------13h|
    B5p11--20p16p13-20p16p13-20p16p13-20p16p13-21p16p13-20p16p13-18p16p13-20p16p13----|
    G---------------------------------------------------------------------------------|
    D---------------------------------------------------------------------------------|
    A---------------------------------------------------------------------------------|
    E---------------------------------------------------------------------------------|
    
    E16p13h16p13h16p13h16h16--/16-16-16-15-13--16--20-20-20-16-15h16p15---------------|
    B-------------------------------------------------------------------18-16--/12h13p|
    G---------------------------------------------------------------------------------|
    D---------------------------------------------------------------------------------|
    A---------------------------------------------------------------------------------|
    E---------------------------------------------------------------------------------|
    
    								   Three Guitars:
    E--------------------15h16p15p13-/19h20p19p17--20~----/22~----------------------|
    B12p10--15h16p15p13----------------------------------------------|-*-/9--11-13--8-|
    G----------------------------------------------------------------|-*/10--12-13--8-|
    D----------------------------------------------------------------|-§-10--------8|
    A----------------------------------------------------------------|-§--8--------6|
    E---------------------------------------------------------------------------------|
     *=Gtr.1&2 §=Gtr.3
    
    E---------------------------------------------------------------------------------|
    B--9-11--6--8-9---8--9-11--/13--11h13p11p9---/11--9h11p9p-8--/9--8h9-p8p6---------|
    G-10-12--7--8-10--8-10-12--/12--12h13p12p10--/12-10h12p10p8--10--8h10p8p7-8~~----|
    D-----------------5--------10-----------------8--------------------------10~~---|
    A--------5-------3---------8-----------------6--------------5-------/----10-----|
    E--------3---------------------------------------------------3-------/----8------|
    
    								  Guitar Solo 2
    E-----------------13-16-/19~~---------------------------------------------15h20p15|
    B-----------12-15-12-15-/18~~--|-------------|-------------------|-----16---------|
    G--/10--13--10-13--------------|--Orchestra--|--Keyboard-Solo-1--|--17------------|
    D---/9~-12---------------------|------&------|-------------------|----------------|
    A---2~~-----------------------|----Vocals---|-------------------|----------------|
    E---3~~--------------------------------------------------------------------------|
    
    E----------15-----15~----------/10-11-------10-------11----------------------11-/-|
    B-16----16--/-16--/--16p13-13--------13-------12-------13----------------13------|
    G----17-----/------/---------/-----------12-------12-------12----------12---------|
    D-----------/------/---------/--------------------------------13-10-13------------|
    A----------------------------/----------------------------------------------------|
    E---------------------------------------------------------------------------------|
    
    E-15p11----------11h15p11h16p11h15p11-----------------13-15-15-h16-15-13----------|
    B-------13----13----------------------13----/13-15-16--------------------16-15-13-|
    G----------12----------------------------12---------------------------------------|
    D---------------------------------------------------------------------------------|
    A---------------------------------------------------------------------------------|
    E---------------------------------------------------------------------------------|
    
    				      Guitar Solo 3 (2 Gtrs.)
    E------------------------------------------------------15-16-18-16-15-------------|
    B-15-16-15~~---|-------------------|--/15-16-15-16-18-16-18-20-18-16-18-16-15----|
    G---------------|--Keyboard-Solo-2--|--/15-17-15-17-19----------------19-17-15-17-|
    D---------------|-------------------|------------------------------------------18-|
    A---------------|-------------------|---------------------------------------------|
    E---------------------------------------------------------------------------------|
    
    E---------------------------------------------------------------------------------|
    B--------------------------.---.---.--------|-------------------|----------|------|
    G-16-------------------13-15--13--12--15~~--|--Keyboard-Solo-3--|--Chorus--|--Riff|
    D-17-18-17-15-13-15-17-15-17--15--13--15~~--|-------------------|----------|------|
    A----20-18-17-15-17-18----------------------|-------------------|----------|------|
    E---------------------------------------------------------------------------------|
    
    E----------------||
    B----|-----------||
    G-2--|---5~-----|| end
    D----|---5------||
    A----|---3------||
    E----------------||
    
    -----------------------------------------------------------------------------------------
    
      Rhyhm Guitar during Guitar Solo 1 
    E---------------------------------------------------------------------------------|
    B---------------------------------------------------------------------------------|
    G---------------------------------------------------------------------------------|
    D---------------------------------------------------------------------------------|
    A--3-3-3-3-3-3-3-3--2-2-2-2-2-2-2-2-/-3-3-3-3-3-3-3-3--2-2-2-2-2-2-2-2--/8-8-8-8|
    E---------------------------------------------------------------------------------|
      pm..............................................................................
    
    E---------------------------------------------------------------------------------|
    B---------------------------------------------------------------------------------|
    G---------------------------------------------------------------------------------|
    D---------------------------------------------------------------------------------|
    A-8-8-8-8--6-6-6-6-6-6-6-6--5-5-5-5-5-5-5-5---------------2-5--3-3-3-3-3-3-3-3-|
    E----------------------------------------------3-3-3-3-3-5-----------------------|
     .................................................................................
    
    E---------------------------------------------------------------------------------|
    B---------------------------------------------------------------------------------|
    G---------------------------------------------------------------------------------|
    D---------------------------------------------------------------------------------|
    A-3-3-3-3-3-3-3-3-2-2-2-2-2-2-2-2-2-2-2-2-2-2-2-2-/-3-3-3-3-3-3-3-3-3-3-3-3-3-3-3|
    E---------------------------------------------------------------------------------|
     .................................................................................
    
    E---------------------------------------------------------------------------------|
    B---------------------------------------------------------------------------------|
    G---------------------------------------------------------------------------------|
    D---------------------------------------------------------------------------------|
    A-3-3-/-5-5-5-5-5-5-5-5-5-5-5-5-5-5-5-5-/-8-8-8-8-8-8-8-8-8-8-8-8-8-8-8-8--6-6-6-|
    E---------------------------------------------------------------------------------|
     .................................................................................
    
    E---------------------------------------------------------------------------------|
    B---------------------------------------------------------------------------------|
    G---------------------------------------------------------------------------------|
    D---------------------------/4-4-4-4-4-4-4-4-4-4-4-4-4-4-4-4-/-5-5-5-5-5-5-5-5-5-5|
    A-6-6-6-6-6-6-6-6-6-6-6-6-6-------------------------------------------------------|
    E---------------------------------------------------------------------------------|
     .................................................................................
    
    E----------------||
    B----------------||
    G----------------|| end
    D-5-5-5-5-5-5---||
    A----------------||
    E----------------||
     ............|
    
      Rhythm Guitar during Keyboard Solo 1 & Guitar Solo 2		      x2
    E------------------------------------------------------------------------||
    B------------------------------------------------------------------------||
    G*----------------------------------------------------------------------*|| end 
    D*----------------------------------------------------------------------*||
    A---3-3-3-3-3-3-3-3-3-3-3-3-3-3-3-3-/-6-6-6-6-6-6-6-6--------------------||
    E-----------------------------------------------------6-6-6-6-6-6-6-6---||
       pm.................................................................|
    
      Rhythm Guitar during Keyboard Solo 2 & Guitar Solo 3
    E----------------------------------------------------------------------||
    B----------------------------------------------------------------------||
    G---------------------------------------------------/4-----------------|| end
    D-------5---------5-----------8------------------------6-5-6-5-3-------||
    A--5----3----5----3-----8-----6-----5---6---5---3----------------6-5---||
    E--3---------3----------6-------------3---3---3---3--------------------||
    				     pm  pm  pm  pm
    
    -----------------------------------------------------------------------------------------
    
    =======================
    =TABLATURE EXPLANATION=
    =======================
    
    A.H. = Artificial Harmonic
    
    pm..| = Palm mute
    
    h = hammer on
    
    p = pull off
    
    / = slide up
    
     = slide down
    
    ~ = Vibrato
    
    b() = Bend
    
    x = Pick Slide
    
    --------
    --------
    ---12--- = Tremolo pick
    ----/---
    ----/---
    ----/---
    
    ---.---
    --12--- = Staccato
    -------
    -------
    -------
    
    |     |
    |     |
    |*   *| = repeat from * to *
    |*   *| 
    |     |
     

    Тональность:

    Нет текста!



    Назад
    Рекомендуем посмотреть другие песни исполнителя «Rhapsody»:

    • Комментарии Facebook ()
    • Комментарии ВКонтакте



    Добавить в Избранное Браузера
    Сохранить здесь Очистить


    x

    0


    +
    -

    +
    -

    -

    Авторизация





    Зарегистрироваться

    M

    Дата и время

    • 21:00:34
       

    Социальные ссылки


    Наши приложения

    • Muzbank App Play Market
    • Muzbank Amazon App