MUZBANK



A Most Complete Bank Of Music Information

МУЗЫКАЛЬНО-ИНФОРМАЦИОННЫЙ БАНК

Поиск по сайту







    RRhapsody • Lord Of The Thunder (аккорды и текст - chords & lyrics)


    263

    Print

    Видео «Lord Of The Thunder (Rhapsody)»

    Видео клипы к песне подбираются автоматически сайтом youtube. Возможны некоторые несоответствия клипов песне.

    ↑ Спрятать рекламу ↑



    Download


     
    
    
    RHAPSODY - LORD OF THE THUNDER
    Music:Staropoli and Turilli
    
    Transcribed By: Niclas Buss
    
    Email: Nbjbuss@hotmail.com
    
    Please mail me if you find mistakes!
    
    Normal Tuning (EBGDAE)!
    				      x2		
    E---------------------------------------------------------------------------------|
    B----------------------------------------|----------------------------------------|
    G*-6-----6---------------9--------------*|--6-----6-----------------9-------------|
    D*-4-----4--7---7----7--7--7--11--11--*|--4-----4--7----7----7---7---7----6~---|
    A-----4-----5---5----5-----5---9---9---|-----4-----5----5----5-------5----4~---|
    E-----2----------------------------------------2----------------------------------|
    
      Riff 1							  (end Riff 1) x4
    E---------------------------------------------------------------------------------|
    B---------------------------------------------------------------------------------|
    G*--------------4h7---------------------------------4h7--------------------------*|
    D*--4-4-4h7-4-4-----4-4-4h7-7-6-4-6-4---4-4-4h7-4-4-----4-4-4h7-2-4-4-6h7p6p4----*|
    A---------------------------------------------------------------------------------|
    E---------------------------------------------------------------------------------|
       pm..|   pm..|   pm..|   pm........| pm..|   p...|   pm..|   pm....|
    
    E---------------------------------------------------------------------------------|
    B---------------------------------------------------------------------------------|
    G-------------7-7-6----7-7-6-4-6---4-------------7-7-6----7-7-6-4-6---4----7-7-6-4|
    D----7-7-6--3--------4-----------7------7-7-6--3--------4-----------7----4--------|
    A--4----------------------------------4-------------------------------------------|
    E---------------------------------------------------------------------------------|
      pm..............................................................................
    
    					Verse 1
    E---------------------------------------------------------------------------------|
    B-------------------------------------|-------------------------------------------|
    G-6---4----7-7-6-4-6---4--------------|*------------------------------------------|
    D---7----4-----------7----7---4---6~--|*--------------------------------------9---|
    A-------------------------5---2---4~--|---------------------------------------7---|
    E----------------------------------------2-2-2-2-2-2-2-2-2-2-2-2-2-2-2-2-2-2------|
     ...............|			pm..................................|
    
    					   x2  Bridge
    E---------------------------------------------------------------------------------|
    B-----------------7---------------------------|-----------------------------------|
    G-------------7-------7----------------------*|-----------------6-----4-----6---7-|
    D-----------4---9---9---9--2-----------------*|-----------7-------4-4---4-4---4---|
    A-----------2--------------0---2---7--6--7----|--3---4----5-----------------------|
    E-2--7-5-4---------------------0---5--4--5-------1---2----------------------------|
        pm....|							 pm..| pm..| pm
    
    E---------------------------------------------------------------------------------|
    B---------------------------------------------------------------------------------|
    G-----6-----4------6-----4-----6---7-----6-----4-------4~------6~------5~---------|
    D-4-4---4-4-----9----7-7---7-7---7---7-7---7-7------6-------4-------3-------6-----|
    A---------------7-----------------------------------------------------------4---4-|
    E---------------------------------------------------------------------------------|
     pm..| pm..|	  pm..| pm..| pm  pm..| pm..|  				       pm.
    								      Chorus
    E---------------------------------------------------------------------------------|
    B--------------------------------------------|-----------|----------|-------------|
    G--------------------------------------------|--Verse-2--|--Bridge--|-------------|
    D--------------------------------7-----6-----|-----------|----------|-----6--7--6-|
    A-4-4--------4-4-4--------4-4-4--5--7--4--6--|-----------|----------|--4--4--5--4-|
    E-----4-5-7--------4-5-7------------5-----4----------------------------2----------|
     ..............................|
    							     Guitar Solo
    E---------------------------------------------------------------------------------|
    B--------------------------------------------|-------------|--14-15-14-12---------|
    G--------------------------------------------|--Orchestra--|--------------14-13-11|
    D------------------4--7--6-4-2--4--2-----6---|-------------|----------------------|
    A--9--7--6--6---4--2--5--4-2-0--2--0--6--4---|-------------|----------------------|
    E--7--5--4--4---2---------------------4-------------------------------------------|
    
    			       T       T       T       T                      
    E--------------------------------------------------------------/17b(19)----r17-16h|
    B-------------12-14-15-14-12--19p14p7-19p14p7-21p14p7-22p14p7---------------------|
    G----11-13-14---------------------------------------------------------------------|
    D-15------------------------------------------------------------------------------|
    A---------------------------------------------------------------------------------|
    E---------------------------------------------------------------------------------|
    
    E17p16-14h16~--14p13-13-13--------------------------------------------------------|
    B--------------------------18p15-15-15-15p12-12-12--12p9-9-9--/12-14-15--14-12----|
    G------------------------------------------------------------------------------14-|
    D---------------------------------------------------------------------------------|
    A---------------------------------------------------------------------------------|
    E---------------------------------------------------------------------------------|
    
    			   T				    T
    E-------------------------19p14--------------------14------21p17------------------|
    B------------------------------15----------------15--15---------19----------------|
    G-13-11--------------------------16------------16------16---------18------------18|
    D-------14-12-11-------------------16--------16---------------------19p16--16h19--|
    A----------------14-12-11------------17p14h17----------------------------16-------|
    E---------------------------------------------------------------------------------|
    
    E--17h21p17------/21~--19h21p19p17-16-14-12------------------13h14h16--------19---|
    B19--------19~-------------------------------14-14-15-17--------------14-12-----19|
    G--------------------------------------------------------13-----------------------|
    D---------------------------------------------------------------------------------|
    A---------------------------------------------------------------------------------|
    E---------------------------------------------------------------------------------|
    
    		     T    			     T
    E-----17b(19)~-r17--19p14--------------------14-----21p17--------------------17h21|
    B-18---------------------15----------------15--15--------19----------------19-----|
    G--------------------------16------------16------16--------18------------18-------|
    D----------------------------16--------16--------------------19p16--16h19---------|
    A------------------------------17p14h17---------------------------16--------------|
    E---------------------------------------------------------------------------------|
    
    Ep17------------------------------------------------------------------------------|
    B---19~---|-----------------------------------------------------------------------|
    G---------|*----------------------------------------------------------------------|
    D---------|*----------------------------------------------------------------------|
    A---------|----------------------------------------------------------------2-2-4-4|
    E------------2-2-2-2-2-2-2-2-2-2-2-2-2-2-2-2-2-4-4-4-4-4-4-4-4-4-4-4-4-4-4--------|
    	    pm....................................................................
    
    		     x2
    E---------------------------------------------------------------------------------|
    B-----------------------|-------------------------------------------12h14p12------|
    G----------------------*|---------------9h11p9-------------11h13h14----------14p13|
    D----------------------*|-------9h11p12--------12p11h12h14------------------------|
    A-4-4-4-4-4-4-4-4-4-4---|-11h12---------------------------------------------------|
    E---------------------------------------------------------------------------------|
     ....................|
    
    E-------------------------------16h17h19-/21p17----17--/21~~----------------------|
    B----12h14p12----------15h17h19-----------------17--------------------------------|
    Gh14----------14h16h18------------------------------------------------------------|
    D-----------------------------------------------------------Gtr.2:----------------|
    A-------------------------------------------------------------4----5---7----7---7-|
    E-------------------------------------------------------------2----4---5----5---6-|
    
    E-----------------16h17p16p14-16~--/21--19-21-22-21-19-21-------------------------|
    B-15h17p15p14-15------------------------------------------21-19h21p19-18h19p18h19p|
    G---------------------------------------------------------------------------------|
    D-----------------------------------6---------------------------------------------|
    A-------9----------------------9----4---------------------------------------------|
    E-------7----------------------8--------------------------------------------------|
    
    E----------------14h19-17h19p17-16--14-14-----------15-15-17-19-/22-22b(24)r22-21-|
    B18h19-----15-15--------------------------14------------------/-------------------|
    G--------------------------------------------14---------------/-------------------|
    D-----------------------------------------------16------------/-------------------|
    A-----------5--------3---------------4---------------5--------3---------4---------|
    E-----------3--------1---------------2---------------3--------1---------2---------|
    
    E--15-15-17-19-17h19p17-16-14-14-----------15--17-19-19-19-/22-22-22--21-19-17-16-|
    B--------------------------------14---------/-------------------------------------|
    G----------------------------------14-------/-------------------------------------|
    D-------------------------------------16----/-------------------------------------|
    A---5--------3--------------4---------------5------3------------------------------|
    E---3--------1--------------2---------------3------1------------------------------|
    
    			    x2         x2
    E-17--------------------------------------||
    B----19--|----------|----------|----------||
    G--------|--Bridge--|--Chorus--|--Riff-1--||
    D--------|----------|----------|----------||
    A--------|----------|----------|----------||
    E-----------------------------------------||
    
      Rhythm Guitar during Guitar Solo
    E---------------------------------------------------------------------------------|
    B---------------------------------------------------------------------------------|
    G*--------------------------------------------------------------------------------|
    D*--------------------------------------------------------------------------------|
    A----------------------------------------------------------------5-5-5-5-5-5-5-5-5|
    E--2-2-2-2-2-2-2-2-2-2-2-2-2-2-1-1-1-1-1-1-1-1-1-1-1-1-1-1-1-1-1------------------|
      pm..............................................................................
    
    			      x2
    E--------------------------------|
    B--------------------------------|
    G-------------------------------*|
    D-------------------------------*|
    A-5----------------------2---4---|
    E---2-2-2-2-2-2-2-2-2-2----------|
     ......................|
    
    TABLATURE EXPLANATION
    ----------------------
    h= hammer on
    
    p= pull off
    
    pm..|= palm mute
    
    /= slide up
    
    = slide down
    
    |     |
    |     |
    |*   *| = repeat from * to *
    |*   *| 
    |     |
     

    Тональность:

    Нет текста!



    Назад
    Рекомендуем посмотреть другие песни исполнителя «Rhapsody»:

    • Комментарии Facebook ()
    • Комментарии ВКонтакте



    Добавить в Избранное Браузера
    Сохранить здесь Очистить


    x

    0


    +
    -

    +
    -

    -

    Авторизация





    Зарегистрироваться

    M

    Дата и время

    • 13:19:55
       

    Социальные ссылки


    Наши приложения

    • Muzbank App Play Market
    • Muzbank Amazon App