MUZBANK



A Most Complete Bank Of Music Information

МУЗЫКАЛЬНО-ИНФОРМАЦИОННЫЙ БАНК

Поиск по сайту







    RRhapsody • Power Of The Dragonflame (аккорды и текст - chords & lyrics)


    239

    Print

    Видео «Power Of The Dragonflame (Rhapsody)»

    Видео клипы к песне подбираются автоматически сайтом youtube. Возможны некоторые несоответствия клипов песне.

    ↑ Спрятать рекламу ↑



    Download


     
     
     Normal Tuning 
    
      Riff 1
    E-----------------------------------------------------------------------------------|
    B-----------------------------------------------------------------------------------|
    G*----------------------------------------------------------------------------------|
    D*--5---------9-----------7---------4---------7-----10-----9----------5---------7---|
    A---7---------10----------9---------6---------9-----9------10---------7---------9---|
    E-----0-0-0-0-----0-0-0-0---0-0-0-0---0-0-0-0---0-0----0-0----0-0-0-0---0-0-0-0---0-|
         pm......|   pm......| pm......| pm......| pm..|  pm..|  pm......| pm......| pm.
    
    E-----------------------------------------------------------------------------------|
    B-----------------------------------------------------------------------------------|
    G------------------5--4----------------------------------------------------------/-|
    D-------4----------5--5---5---------9----------7---------4---------7-----10------/-|
    A-------6----------3--2---7---------10---------9---------6---------9-----9-------/-|
    E-0-0-0---0-0-0-0------------0-0-0-0----0-0-0-0---0-0-0-0---0-0-0-0---0-0----0-0----|
     ......| pm......|          pm......|  pm......| pm......| pm......| pm..|  pm..|
    
                                             x2
    E---------/-7--------------------------------------------------------------------|
    B----------------------------------------|---------------------------------------|
    G--5--4------4p0-------------------~---*|-----------------------4h5p4-----------|
    D--5--5------------7--1------------------*|--2~~----------4-5-4-5-------7-5-4-----|
    A--3--2------------6--0-------------------|--2~~-/6-7-6-7---------------------7-6-|
    E-------------------5--2----------------------0~~----------------------------------|
                                                       pm...............................|
    
                                   (end Intro)   Verse 1
    E-----------------------------------------||----------------------------------------|
    B----------|-------------------------||----------------------------------------|
    G--Riff-1--|----------3~~----------||*---------------------------------------|
    D----------|--2~~-----3~~-------------||*-------7-7-----7-7/8-85-5/7-7---------|
    A----------|--2~~-----1~~---------------||----5-5-----8-8-----------------8-8-----|
    E-------------0~~-------------------------||-------------------------------------6-6|
                                                   pm...................................
    
    E-----------------------------------------------------------------------------------|
    B-----------------------------------------------------------------------------------|
    G------------------------------------------------------------------5~--/--7-------6h|
    D------------------------------------7-7-----7-7/8-85-5/7-7-------5~--/--7---7h8---|
    A-8-8-----8-8/9-96-6/8-8------/-5-5-----8-8-----------------8-8---3~--/--5---------|
    E-----9-9-----------------9-9-------------------------------------------------------|
      ..............................................................|
     
                             x2    Bridge
    E-----------------------------------------------------------------------------------|
    B----------------------------|------------------------------------------------------|
    G7h9p7p6------------7--5---*|---3---------6--/--7----3---------6--/--7----3--------|
    D--------8p7p5------7--5---*|---3----3----7--/--7----3----3----7--/--7----3----3---|
    A--------------8p7--5--3----|---1----3----4--/--5----1----3----4--/--5----1----3---|
    E-------------------------------------1--------------------1--------------------1---|
    
                                                                 Chorus
    E-----------------------------------------------------------------------------------|
    B-----------------------------------|-----------|----------|------------------------|
    G---6--/--7----3----5----7-----7~~--|--Verse-2--|--Bridge--|--------7----9---------|
    D---7--/--7----3----5----7-----7~~--|-----------|----------|---5----7----9----9----|
    A---4--/--5----1----3----5-----5~~--|-----------|----------|---5----5----7----9----|
    E--------------------------------------------------------------3--------------7-----|
    
    E---------------3-------------------------------------------------------------------|
    B-----------------5-------------------------------|----------|---------///~~--|
    G--2-/-4-/-5--------5---------7----8----7----8----|--Riff-1--|----------------------|
    D--2-/-4-/-5------------5-----7----7----7----7----|----------|--2~~-----------------|
    A--0-/-2-/-3------------5-----5----6----5----6----|----------|--2~~-----------------|
    E-----------------------3---------------------------------------0~~-----------------|
    
      Guitar Solo
    E-----------------------------------------------------------------------------------|
    B------------------------------------11--13-13b(14)r-13--9~------14-b(16)r14-13-h14|
    G--7-/-12--12b(14)r12-10-p9----/-10-------------------------/13--------------------|
    D----------------------------12-----------------------------------------------------|
    A-----------------------------------------------------------------------------------|
    E-----------------------------------------------------------------------------------|
    
    E-----------------------------------------------------------------------------------|
    B-p11-----------------------------------------12--12b(14)r12-----------------15--17-|
    G-----13-11b(13)r11-10-8--10b(11)r10~~--/-11----------------14-p13p11--/-14--------|
    D-----------------------------------------------------------------------------------|
    A-----------------------------------------------------------------------------------|
    E-----------------------------------------------------------------------------------|
    
    E-----------------------------------------------------------------------------------|
    B-17b(18)r-17--13~------18-b(20)r18-17-h18-p15-------------------------------------|
    G--------------------/17------------------------17-15b(17)r15-14-12--14b(15)r14~~---|
    D-----------------------------------------------------------------------------------|
    A-----------------------------------------------------------------------------------|
    E-----------------------------------------------------------------------------------|
    
    E--------------------17-15----------------------------/18-17------------------------|
    B--------------------------18-17-15--------------------------20-18-17---------------|
    G--14-------------------------------15-14----------------------------19-17-------|
    D-------------0---------------------------17-15-14--------------------------20-19-|
    A-----------------------------------------------------------------------------------|
    E-----------------------------------------------------------------------------------|
                   pm
    
    E-----/-22-20-19---------22p17----------17h22--8p5-------5h8-/-22p15----------15h22|
    B----------------22-20-/-------18----18-------------6---6-------------17----17------|
    G---------------------------------17------------------5------------------17---------|
    D-17--------------------------------------------------------------------------------|
    A-----------------------------------------------------------------------------------|
    E-----------------------------------------------------------------------------------|
    
    E--8p3----------------------------17-15-----------------------------/18-17---------|
    B-------5--------------------------------18-17-15---------------------------20-18-17|
    G---------5~~---14-12------------------------------15-14--------------------------|
    D----------------------15-14-12----------------------------17-15-14-----------------|
    A-----------------------------------------------------------------------------------|
    E-----------------------------------------------------------------------------------|
    
    E---------------------/-22-20-19---------22p17----------17h22--8p5-------5h8-/-22p-|
    B--------------------------------22-20-/-------18----18-------------6---6-----------|
    G---19-17----------------------------------------17------------------5-------------|
    D----------20-19-17-----------------------------------------------------------------|
    A-----------------------------------------------------------------------------------|
    E-----------------------------------------------------------------------------------|
    
    E-15----------15h22--8p3---------12p8-------8h12-/-15p12----------12h15-/-20-/22~~-|
    B----17----17-------------5------------8---8--------------13----13------------------|
    G-------17------------------5~~----------9-------------------12---------------------|
    D-----------------------------------------------------------------------------------|
    A-----------------------------------------------------------------------------------|
    E-----------------------------------------------------------------------------------|
    
                                                                               x2
    E-----------------------------------------------------------------------------------|
    B-----------------------------------------------------------------------------|-----|
    G*------------------------------------------------------------------------5--*|--7-|
    D*--------------------------------------------------------------------5---5--*|--7-|
    A---5-5-5-5-5-5-5-5-5-5-5-5-5-5-5-5-5-5-5-5-5-5-5-5-5-5-5-5-5-5-5-5---5---3---|--5-|
    E---------------------------------------------------------------------3-------------|
       pm..............................................................|
    
    E-----------------------------------------------------------------------------------|
    B----------|----------|----------|--------------------------------------------------|
    G---7--5--|--Bridge--|--Chorus--|--------------------------------------------------|
    D---7--5--|----------|---(x2)---|--5---------5---------5---------5---------5-----5-|
    A---5--3--|----------|----------|--5---------5---------6---------5---------3-----6-|
    E-----------------------------------3-3-3-3-3-3-3-3-3-3-3-3-3-3-3-3-3-3-3-3-3-3-3-3-|
                                         pm......| pm......| pm......| pm......| pm..|
    
    E---------------------------------------------------------------||
    B---------------------------------------------------------------||
    G---------------------------------------------------------------|| end
    D------5---------5---------5-------5---------5-----5------5----||
    A------5---------5---------6-------5---------3-----6------5----||
    E-3-3--3-3-3-3-3-3-3-3-3-3-3-3-3-3-3-3-3-3-3-3-3-3-3-3-3--3----||
     pm..|  pm......| pm......| pm....| pm......| pm..| pm..|
    
    ----------------------------------------------------------------------------------
    
     Rhythm Guitar during Guitar Solo
    E-----------------------------------------------------------------------------------|
    B-----------------------------------------------------------------------------------|
    G--------7----3--------------6-------------------11----7--------------------5----7--|
    D---5----7----3----3----4----6----6----8----9----11----7-----7----8----3----5----7--|
    A---5----5----1----3----4----4----6----8----9----9-----5-----7----8----3----3----5--|
    E---3--------------1----2---------4----6----7----------------5----6----1------------|
    
    E-----------------------------------------------------------------------------------|
    B-----------------------------------------------------------------------------------|
    G---7----7----9-----------------/--5---5------------------------------------------|
    D---7----7----8----5----3---3--/--5---5---------------------------------------3--|
    A---5----5----7----5----3---3--/--3---3---/--5--5-5-5--/7--7-7-7--------------3--|
    E--------------------3----1---1-------------------------------------3--3-3-3---1--|
                                                   pm..............................|
    
    E---------||
    B---------||
    G--5~~----|| end
    D--5~~----|| 
    A--3~~----||
    E---------||
    
    ----------------------------------------------------------------------------------
    
    =======================
    =TABLATURE EXPLANATION=
    =======================
    
    A.H. = Artificial Harmonic
    
    pm..| = Palm mute
    
    h = hammer on
    
    p = pull off
    
    / = slide up
    
     = slide down
    
    ~ = Vibrato
    
    b() = Bend
    
    x = Pick Slide
    
    --------
    --------
    ---12--- = Tremolo pick
    ----/---
    ----/---
    ----/---
    
    ---.---
    --12--- = Staccato
    -------
    -------
    -------
    
    |     |
    |     |
    |*   *| = repeat from * to *
    |*   *| 
    |     |
     

    Тональность:

    Нет текста!



    Назад
    Рекомендуем посмотреть другие песни исполнителя «Rhapsody»:

    • Комментарии Facebook ()
    • Комментарии ВКонтакте



    Добавить в Избранное Браузера
    Сохранить здесь Очистить


    x

    0


    +
    -

    +
    -

    -

    Авторизация





    Зарегистрироваться

    M

    Дата и время

    • 06:54:55
       

    Социальные ссылки


    Наши приложения

    • Muzbank App Play Market
    • Muzbank Amazon App