MUZBANK



A Most Complete Bank Of Music Information

МУЗЫКАЛЬНО-ИНФОРМАЦИОННЫЙ БАНК

Поиск по сайту







    RRhapsody • Rage Of The Winter (аккорды и текст - chords & lyrics)


    206

    Print

    Видео «Rage Of The Winter (Rhapsody)»

    Видео клипы к песне подбираются автоматически сайтом youtube. Возможны некоторые несоответствия клипов песне.

    ↑ Спрятать рекламу ↑



    Download


     
    
    
    *******************************************************************
    * RHAPSODY - RAGE OF THE WINTER (From the album: LEGENDARY TALES) *
    *******************************************************************
     Music By: Alex Staropoli/Luca Turilli
    
    Transcribed By: Niclas Buss
    Day tabbed: ?.?.1998 and upgraded 12.8.2000
    email: nbuss@ironmaiden.com
    
     Please mail me if you find mistakes!
    
    ------------------------------------
    
     Normal Tuning!
    		     x2			    Three Guitars:
    E--------------------------------------------7p0-5p0-7p0--8p0-7p0-5p0/7p0-5p0-7p0-|
    B-----------------------|-----------------|--8p0-7p0-8p0-10p0-8p0-7p0/8p0-7p0-8p0-|
    G*---------------------*|-----------------|---------------------------------------|
    D*---------------------*|--3--4--5--7--9--|--9------------------------------------|
    A---5----4----7----2----|--1--2--3--5--7--|--7------------------------------------|
    E---3----2----5----0--------------------------------------------------------------|
    
    E--8p0-7p0-5p03p0-2p0-3p0/5p0-3p0-5--7p0-5p0-7p0--8p0-7p0-5p0/7p0-5p0-7p0--8p0-7p|
    B-10p0-8p0-7p05p0-3p0-5p0/7p0-5p0-7--8p0-7p0-8p0-10p0-8p0-7p0/8p0-7p0-8p0-10p0-8p|
    G---------------------------------------------------------------------------------|
    D--------------5-----------7----------9------------------------9------------------|
    A--------------3-----------5----------7------------------------7------------------|
    E--------------------------------------------------------------0------------------|
    
    Ep0-5p03p0-2p0-3p0/5p0-3p0-5p0--7p0-5p0-7p0--8p0-7p0-5p0/7p0-5p0-7p0--8p0-7p0-5p0|
    Bp0-7p05p0-3p0-5p0-7p0-5p0-7p0--8p0-7p0-8p0-10p0-8p0-7p0-8p0-7p0-8p0-10p0-8p0-7p0|
    G---------------------------------------------------------------------------------|
    D-------5-----------7-------------------------------------------------------------|
    A-------3-----------5-------------------------------------------------------------|
    E---------------------------------------------------------------------------------|
    
    E-3p0-2p0-3p0/5p0-3p0-5p0--7p0-5p0-7p0--8p0-7p0-5p0/7p0-5p0-7p0--8p0-7p0-5p03p0-2|
    B-5p0-3p0-5p0/7p0-5p0-7p0--8p0-7p0-8p0-10p0-8p0-7p0-8p0-7p0-8p0-10p0-8p0-7p05p0-3|
    G---------------------------------------------------------------------------------|
    D---------------------------------------------------------------------------------|
    A---------------------------------------------------------------------------------|
    E---------------------------------------------------------------------------------|
    
    				       Verse 1			    x2  Chorus
    Ep0-3p0/5p0-3p0-5p0/7p0-5p0-3p0-3~~-||--3------7-------------5--------------------|
    Bp0-5p0/7p0-5p0-7p0/8p0-7p0-5p0-5~~-||--4------8------7------6----5----|----------|
    G-----------------------------------||*-5------9------7------7----6---*|*---------|
    D------------------12--10---9---9~~-||*-5------9------9------7----7---*|*-3-----5-|
    A------------------10---9---7---7~~-||--3------7------9------5----7----|--1--3--3-|
    E-----------------------------------||----------------7-----------5----------1----|
    
    		x2   Riff 1
    E-----------------------------15-17-18--17-15h17p15----15-18-17-15h17p15-13-17--15|
    B------------------|-15-17-18-----------------------15----------------------------|
    G-----------------*|--------------------------------------------------------------|
    D--7--3-----5--7--*|--------------------------------------------------------------|
    A--5--1--3--3--5---|--------------------------------------------------------------|
    E--------1------------------------------------------------------------------------|
    
    								       end Riff 1
    E-13-12-12-13-15--16--17--18-17h18p17-15-/22--17-15-13----------------------------|
    B-------------------------------------------------------15-15--14-14--17-18-15~~15|
    G---------------------------------------------------------------------------------|
    D---------------------------------------------------------------------------------|
    A---------------------------------------------------------------------------------|
    E---------------------------------------------------------------------------------|
     
     Verse 2
    E-3------7------------------7---------5-----------3------7-------------7-8-10-----|
    B-4------8------8----7-8-10----7------6----5------4------8--8---8---10---------7--|
    G-5------9---9-----9-----------7------7----6------5------9----9---9------------7--|
    D-5------9---------------------9------7----7------5------9---------------------9--|
    A-3------7---------------------9------5----7------3------7---------------------9--|
    E------------------------------7-----------5-----------------------------------7--|
    
    					        Guitar Solo 1
    E-----5---------------------------------------------------------------------------|
    B-----6--6----5-------|--------|--------|-----|-15p12----------------------12h15-/|
    G-----7----5--6-7-6---|-Chorus-|-Riff-1-|-----|-------11----------------11--------|
    D-----7-------7-----5-|--------|--------|-7~--|----------12----------12-----------|
    A-----5-------7-------|--------|--------|-5~--|-------------14----14--------------|
    E-------------5------------------------------------------------14-----------------|
    
    			                Two Guitars:
    E----------------------------------/-21~-21p19p1716---------------------/-21--18-|
    B-19p15----------------------15h19-/-21~-21p19p17-17-19-18-19b(21)~-r19~-/-23--19-|
    G-------16----------------16-------------------------18-18-18b(19)~-r18~----------|
    D----------16----------16---------------------------------------------------------|
    A-------------17----17------------------------------------------------------------|
    E----------------19---------------------------------------------------------------|
    
    E----/-17--15-14--------------/22~-21--19-/21--17------16~------------------------|
    B19~-/-19--17-15-17-15-14-15~-/24--22--20-/22--19-19~--18~-18--15-15b(17)-r15-14~-|
    G18~-------------18-16-15-16~---------------------18~------19--16-16b(18)-r16-14~-|
    D---------------------------------------------------------------------------------|
    A---------------------------------------------------------------------------------|
    E---------------------------------------------------------------------------------|
    
     w/Lead Fill 1
    E-/18~--14----/19~-14------/-19~--21-21b(22)~-r21---------13~-----13--14~---------|
    B-/19~--14-14-/19~-15-15~--/-20~--22-22b(24)~-r22--19~---14~--14-14--14~---14p11|
    G----------15---------16~---------------------------18~--------16-----------------|
    D---------------------------------------------------------------------------------|
    A---------------------------------------------------------------------------------|
    E---------------------------------------------------------------------------------|
    
    E---------------------------------------------------------------------------------|
    B----------------------11h14/15p12----------------------12h1513p8----------------|
    G-11----------------11-------------12----------------12------------9--------------|
    D----11----------11-------------------12----------12-----------------10-----------|
    A-------13----13-------------------------14----14-----------------------10--------|
    E----------14-------------------------------15-----------------------------12p8h12|
    
    E---------------------------------------------------------------------------------|
    B---------8h13-13p8------------/15p12-------------15p12------------/17p13---------|
    G-------9-----------9-----------------12----------------12----------------14------|
    D----10---------------10-----------------12----------------12----------------14---|
    A-10---------------------10-----------------14----------------14----------------15|
    E---------------------------12-----------------15----------------15---------------|
    
    E---------------------------------------------------------------------------------|
    B----17p13------------/18p15-------------18p15-------------------------17h20-20p17|
    G----------14----------------15----------------15-------------------17------------|
    D-------------14----------------15----------------15-------------17---------------|
    A----------------15----------------17----------------17-------19------------------|
    E-17----------------17----------------18----------------18/20---------------------|
    
    E----------------------------17----17-------------------------------------14------|
    B-------------------------18----18----18-------------------------------15----15---|
    G-17-------------------19----------------19-------------------------16----------16|
    D----17-------------19----------------------19-------------------16---------------|
    A-------19----17h20----------------------------20p17-17-1614h17------------------|
    E----------20---------------------------------------------------------------------|
    
    E----14-14-------14------------/14----14-/21p19h21p19-17--13----13-/21p19h21p19-17|
    B-15-------15-------15----18~------14------------------------14-------------------|
    G-------------16-------16---------------------------------------------------------|
    D---------------------------------------------------------------------------------|
    A---------------------------------------------------------------------------------|
    E---------------------------------------------------------------------------------|
    
    E-14----14-/22p21h22p21-19----------14-16-17--12----12-/19p17h19p17-15--11----11-|
    B----15--------------------14-16-18---------------12------------------------12----|
    G---------------------------------------------------------------------------------|
    D---------------------------------------------------------------------------------|
    A---------------------------------------------------------------------------------|
    E---------------------------------------------------------------------------------|
    
    E/19p17h19p17-15--12----12-/20p19h20p19-17----------12-14-15--10----10-/17p15h17|
    B---------------------13--------------------12-14-16---------------10-------------|
    G---------------------------------------------------------------------------------|
    D---------------------------------------------------------------------------------|
    A---------------------------------------------------------------------------------|
    E---------------------------------------------------------------------------------|
    
    Ep15-13--9----9-/17p15h17p15-13--10----10-/18p17h18p17-15----------10-12-13-------|
    B----------10-----------------------11--------------------10-12-14----------15-17-|
    G---------------------------------------------------------------------------------|
    D---------------------------------------------------------------------------------|
    A---------------------------------------------------------------------------------|
    E---------------------------------------------------------------------------------|
    				
    							  Trill  (end Guitar Solo)
    E----15-17-18-------12-15-12--------12-15-18p17h18p17-15--14h15p14~~-------------|
    B-18-------------14----------14--14----------------------------------------------|
    G-------------14------------------------------------------------------------------|
    D---------------------------------------------------------------------------------|
    A---------------------------------------------------------------------------------|
    E---------------------------------------------------------------------------------|
    
                        x2			   Gtr.1 (with slight Delay)
    E------------------------------------------------------13------13--/20--18-16-15--|
    B----------------------|-----------------|-13------13------13---------------------|
    G----------------------|-----------------|-----13---------------------------------|
    D----------------------|--3--4--5--7--9--|-Gtr.2----------------------------------|
    A---5----4----7----2---|--1--2--3--5--7--|-8888888888888888888888--33333333333333-|
    E---3----2----5----0--------------------------------------------------------------|
    					  pm.....................................|
    
    E-13-11-13b(15)--r13-11-9--8h9p8h9-6h8p6h8-4h6p4h6-3h4p3h4------------------------|
    B----------------------------------------------------------6h8p6h8-5h6p5h6--------|
    G--------------------------------------------------------------------------6h8p6h8|
    D---------------------------------------------------------------------------------|
    A-33333-44444444444444444---------------------------------------------------------|
    E--------------------------6--6--6--6--6--6--6--6--6--6--6--6--6--6--6--6--6--6--6|
     pm...............................................................................|
    
    E---------------------------------------------------------------------------------|
    B-------------------|-------------------------------------------------------------|
    G-5h6p5h6p5h6p5-5~~-|-------------------------------------------------------------|
    D-------------------|-10-10----10-10-10----10-10--------------10-10----10-10-10---|
    A-------------------|--8--8-----8--8--8-----8--8----6----5-----8--8-----8--8--8---|
    E--6--6--6--6-------------------------------------8---8--7------------------------|
      pm.........|
    		      Guitar Solo 2
    E----------------------------16h20p16---------16h20/2120-16----------16h20p16----|
    B-------------------|-----18----------18----18---------------18----18----------18-|
    G-------------------|--17----------------17---------------------17----------------|
    D-10-10-------------|-------------------------------------------------------------|
    A--8--8----6----5~--|-------------------------------------------------------------|
    E--------8---8--7~----------------------------------------------------------------|
    
    E---------------------------------------------------------------------------------|
    B---------------------------------------------------------------------------------|
    G-17h18-17-15----17-15------------------------------------------------------------|
    D-------------18-------18-17-15----17-15------------------------------------------|
    A-------------------------------19-------19-16-15h16p15h16p15---------------------|
    E-------------------------------------------------------------15h16p15h16p15-16-18|
    
    E----------------------------------------------11h15p11----15p11----11h15p11h16p11|
    B-------------------------------------------13----------13-------13---------------|
    G----------------------------------------12---------------------------------------|
    D----------15h17p15h18p15-------------13------------------------------------------|
    A-15-17-18----------------18-17-15-15---------------------------------------------|
    E---------------------------------------------------------------------------------|
    
    Eh15p11h15p11---------------------------------------------------------------------|
    B-------------13----/14-13-11----------------------------------------/9~-----12~-9|
    G----------------12-----------13-12-10----------------------10-12-13-----10~------|
    D--------------------------------------13-11-10----10-11-13-----------------------|
    A-----------------------------------------------13--------------------------------|
    E---------------------------------------------------------------------------------|
    
    						     Verse 3
    E-10----13-10-16-13-/22-20-19-------------------------3-------------------7-------|
    B~---12-----------------------21-20~~--|-----------|--6-------------------8--8-7--|
    G--------------------------------------|-Orchestra-|--5----5-7-8-7-8-7-5--9------9|
    D--------------------------------------|-----------|--5--5----------------9-------|
    A--------------------------------------|-----------|--3-------------------7-------|
    E---------------------------------------------------------------------------------|
    
    E---------------------5--------3---------------6-8-10-11---7---------------6-8-10-|
    B-7-------------------6---5----6---------6-8-9-------------8-----7---6-8-9--------|
    G-7----4-6-7-6-7-6-4--7---6----5---5-7-8-------------------9-----7----------------|
    D-9--4----------------7---7----5---------------------------9-----9----------------|
    A-9-------------------5---7----3---------------------------7-----9----------------|
    E-7-----------------------5--------------------------------------7----------------|
    
    E-5---5-8-7-5---------------------------||
    B-6-----------5---|----------|----------||
    G-7-----------6---|--Chorus--|--Riff-1--|| end
    D-7-----------7---|----------|----------|| 
    A-5-----------7---|----------|----------||
    E-------------5-------------------------||
    
    
    -----------------------------------------------------------------------------------------
    
      Lead Fill 1
    E----------------------9h14p9------------------------------------14h19p14---------|
    B-------------11----11--------11------------------------15----15----------15------|
    G----------11----11--------------11------------------16----16----------------16---|
    D-------11--------------------------11------------16----------------------------16|
    A--9h13--------------------------------13p9/14h17---------------------------------|
    E---------------------------------------------------------------------------------|
    
    E--------------------------9h14p9---------------------------------9h14p9----------|
    B-----------------11----11--------11---------------------11----11--------11-------|
    G--------------11----11--------------11---------------11----11--------------11----|
    D-----------11--------------------------11---------11--------------------------11-|
    A17p149h13--------------------------------13p9h13--------------------------------|
    E---------------------------------------------------------------------------------|
    
    E-----------------------18h21p18----------18----------------||
    B---------------19---19----------19----19----1918-21-19~---||
    G------------18---18----------------18----------------------|| end
    D---------20------------------------------------------------||
    A-13p9/21---------------------------------------------------||
    E-----------------------------------------------------------||
    
      Rhythm Guitar during Guitar Solo 2
    E---------------------------------------------------------------------------------|
    B---------------------------------------------------------------------------------|
    G---------------------------------------------------------------------------------|
    D---------------------------------------------------------------------------------|
    A-8-8-8-8-8-8-8-8-8-8-8-8-8-8-8-8-3-3-3-3-3-3-3-3-3-3-3-3-3-3-4-4-4-4-4-4-4-4-4-4-|
    E---------------------------------------------------------------------------------|
     pm...............................................................................
    
    E-------------------------------------------||
    B-------------------------------------------||
    G-------------------------------------------|| end
    D-------------------------------------------||
    A-4-4---------------------------------------||
    E-----3-3-3-3-3-3-3-3-3-3-3-3-3-3-3-3-3-3---||
     ........................................|
    
    
    -----------------------------------------------------------------------------------------
    
    TABLATURE EXPLANATION
    ----------------------
    h= hammer on
    
    p= pull off
    
    pm..|= palm mute
    
    b()= bend
    
    ~~= vibrato
    
    /= slide up
    
    = slide down
    
    |     |
    |     |
    |*   *| = repeat from * to *
    |*   *| 
    |     |
     

    Тональность:

    Нет текста!



    Назад
    Рекомендуем посмотреть другие песни исполнителя «Rhapsody»:

    • Комментарии Facebook ()
    • Комментарии ВКонтакте



    Добавить в Избранное Браузера
    Сохранить здесь Очистить


    x

    0


    +
    -

    +
    -

    -

    Авторизация





    Зарегистрироваться

    M

    Дата и время

    • 07:10:56
       

    Социальные ссылки


    Наши приложения

    • Muzbank App Play Market
    • Muzbank Amazon App