MUZBANK



A Most Complete Bank Of Music Information

МУЗЫКАЛЬНО-ИНФОРМАЦИОННЫЙ БАНК

Поиск по сайту







    RRhapsody • The Dark Tower Of Abyss (аккорды и текст - chords & lyrics)


    230

    Print

    Видео «The Dark Tower Of Abyss (Rhapsody)»

    Видео клипы к песне подбираются автоматически сайтом youtube. Возможны некоторые несоответствия клипов песне.

    ↑ Спрятать рекламу ↑



    Download



     
    
    
    Rhapsody - The Dark Tower Of Abyss
    Tabbed By: Rodrigo Salazar
    EMail: rsalazart@hotmail.com
    
    
    Violin part, arranged for elec.guitar
    ---|--------------------------------------------------------------------------
    ---|--------------------------------------------------------------------------
    ---|--------------------9--------------------------------11-9-----------------
    ---|-9---12-11-12---9-----12-11-9-8---11-9-11-------12--------12-11-9-8-9-----
    -9-|--------------------------------------------9-----------------------------
    ---|--------------------------------------------------------------------------
                                                                                  
    
    ---|------------------------------------------------------------------------|-
    ---|------------------------------------------------------------------------|-
    ---|--------------------9--------------------------------11-9---------------|-
    ---|-9---12-11-12---9-----12-11-9-8---11-9-11-------12--------12-11-9-8-9---|-
    -9-|--------------------------------------------9---------------------------|-
    ---|------------------------------------------------------------------------|-
                                                                                  
    
    ------------------------------------------------------------------------------
    ------------------------------------------------------------------------------
    -9-7-6-------6----------------------------------------------------------------
    -------9-8-9---9-8-6------8-9-11-8-9---------9-----------11-9-11-7-11---11----
    ---------------------9-11------------11-12-9---12-11-9-8--------------9-------
    ------------------------------------------------------------------------------
                                                                                  
    
    ------------------------------------------------------------------------------
    -------------------------------------------------------------8-7-8------------
    -------------------------9-7-9----9---9---11-9-7-----------7-------9-7--------
    ---12-11-9---------------------11---9---7--------11-9-8-11-------------10-9---
    -8---------12-11-9-11-12------------------------------------------------------
    ------------------------------------------------------------------------------
                                                                                  
    
    ------------------------------------------------------------------------------
    ------------------------------------------------------------------------------
    ----------------------9-------9-11----9-11-12---9-----------------------------
    -8------------9-11-12---11-12------12----------------12--------11h12p11-------
    ---11-9-11-13-----------------------------------------------------------------
    ------------------------------------------------------------------------------
                                                                                  
    
                                             Elec.guitars entering here:
    ------------------------------------------------------------------------------
    ------------------------------------------------------------------------------
    ------------------------------------------------------------------------------
    -9----------------------------------------------------------------------------
    ---------------------------------------------------------------------5------5-
    ---------------------------------------------------------------------7------7-
                                                                                  
    
    -|--------------6-7-9----------------|--------------6-7-9-/10-----------------
    -|------7-6-7-9----------------------|------7-6-7-9-----------------------5-7-
    -|-----------------------------------|----------------------------7--6--7-----
    -|-----------------------------------|----------------------------------------
    -|-4------------------------4------7-|-5--------------------------9-----------
    -|-6------------------------6------6-|-7--------------------------7-----------
                                                                                  
    
    -|-----------------|-----------------|-----------------|-2--------------------
    -|-8-5-----------5-|-7-3-----------3-|-3-----------3-6-|---2---2--------------
    -|-------------5---|-----4-------4---|---4-------4-----|-4---3----------------
    -|-5---9-5---5-----|-4-----4---4-----|-6---6-3-6-------|-2-------4------------
    -|-7-------7-------|-5-------5-------|-4---------------|---------4---5------5-
    -|-----------------|-----------------|-----------------|---------2---7------7-
                                                                                  
    
    -|--------------6-7-9----------------|--------------6-7-9-/10-----------------
    -|------7-6-7-9----------------------|------7-6-7-9-----------------------5-7-
    -|-----------------------------------|----------------------------7--6--7-----
    -|-----------------------------------|----------------------------------------
    -|-4------------------------4------7-|-5--------------------------9-----------
    -|-6------------------------6------6-|-7--------------------------7-----------
                                                                                  
    
    -|-----------------|-----------------|-----------------|----------------------
    -|-8-5-----------5-|-7-3-----------3-|---3-2-----------|-3--------------------
    -|-------------5---|-----4-------4---|-4-----4-3-------|--------6-------------
    -|-5---9-5---5-----|-4-----4---4-----|-2---------5-4-2-|-4-------------3------
    -|-7-------7-------|-5-------5-------|-4---------------|-4--------------------
    -|-----------------|-----------------|-----------------|-2--------------------
                                                                                  
    
    ------------------------------------------------------------------------------
    ------------------------------------------------------------------------------
    -7--------------6----------------4---------3----------------------------------
    --------4---------------2------------------4---------------4------------------
    -----------------------------------------------------------4------------------
    -----------------------------------------------------------2------------------
                                                                                  
    
    |Riff A...
    -------------|-------------------------------------|-------------------7---7--
    -------------|-------------------7---7-------------|-------5---5-8-5-8---8----
    -------------|-------4---4-7-4-7---7---4h5p4-------|-----4---4----------------
    -4h5p4-------|-----4---4---------------------7-5-4-|---5----------------------
    -------7-5-4-|---5---------------------------------|-7------------------------
    -------------|-7-----------------------------------|--------------------------
                                                                                  
                                                                           ...end Riff A|
    --------------|--------------7---7-10-7-10-------------------------------------------|-
    --------------|--------8---8---8-----------7h8p7---------------------------12-----12-|-
    -7h9p7--------|------7---7-----------------------9-7-6-------7---7-11-7-11-----11----|-
    -------11-9-7-|----9-----------------------------------9-4-9---9---------------------|-
    --------------|-10-------------------------------------------------------------------|-
    --------------|----------------------------------------------------------------------|-
                                                                                  
    
                 |Riff B...
    -|----------|---------------------------------|---------------------------------
    -|----------|---------------------------------|---------------------------------
    -|--Riff-A--|---------------------------------|---------------------------------
    -|----------|---------------------------------|---------------------------------
    -|----------|-2-2-2-2-2-2-2-2-2-2-2-2-2-2-2-2-|-2-2-2-2-2-2-2-2-2-2-2-2-2-2-2-2-
    -|----------|---------------------------------|---------------------------------
                                                                                  
    
    -|-----------------------------------|--------------------------------
    -|-----------------------------------|-7------------------------------
    -|-----------------------------------|--------------------------------
    -|-9---------------------------------|--------------------------------
    -|-7---------------------------------|--------------------------------
    -|-0---------------------------------|--------------------------------
                                                                                  
    
    -|---------------------------------|---------------------------------|--------
    -|---------------------------------|---------------------------------|--------
    -|---------------------------------|---------------------------------|--------
    -|---------------------------------|---------------------------------|--------
    -|-2-2-2-2-2-2-2-2-2-2-2-2-2-2-2-2-|-2-2-2-2-2-2-2-2-2-2-2-2-2-2-2-2-|--------
    -|---------------------------------|---------------------------------|--------
                                                                                  
    
    -|---------------------------------|---------------------------------|--------
    -|---------------------------------|-8---------------7---------------|--------
    -|---------------------------------|---------------------------------|--------
    -|-9-------------------------------|---------------------------------|--------
    -|-7-------------------------------|---------------------------------|--------
    -|-0-------------------------------|---------------------------------|--------
                                                                                  
    
                         ...end Riff B| |Riff C...
    -|---------------------------------|------------------------------------------
    -|---------------------------------|------------------------------------------
    -|-------------9-------------------|------------------------------------------
    -|-----9---8-------9-------8-------|------------------------------------------
    -|-9-------------------------------|-6-6-6-6-6-6-6-6-6-6-6-6-6-6-6-6-6-6-6-6--
    -|---------------------------------|------------------------------------------
                                                                                  
    
    -------------------------|----------------------------------------------------
    -------------------------|----------------------------------------------------
    -------------------------|----------------------------------------------------
    -------------------------|----------------------------------------------------
    -6-6-6-6-6-6-6-6-6-6-6-6-|----------------------------------------------------
    -------------------------|-6-6-6-6-6-6-6-6-6-6-6-6-6-6-6-6-6-6-6-6-6-6-6-6-6--
                                                                                  
    
    ---------------|--------------------------------------------------------------
    ---------------|--------------------------------------------------------------
    ---------------|--------------------------------------------------------------
    ---------------|--------------------------------------------------------------
    ---------------|--------------------------------------------------------------
    -6-6-6-6-6-6-6-|-4-4-4-4-4-4-4-4-4-4-4-4-4-4-4-4-4-4-4-4-4-4-4-4-4-4-4-4-4-4--
                                                                                  
    
    -----|-----------------------------------------------------------------|------
    -----|-----------------------------------------------------------------|------
    -----|-----------------------------------------------------------------|------
    -----|-----------------------------------------------------------------|------
    -----|-6-6-6-6-6-6-6-6-6-6-6-6-6-6-6-6-6-6-6-6-6-6-6-6-6---6---6---6---|------
    -4-4-|-----------------------------------------------------------------|------
                                                                                  
    
    ---------------------------------------|--------------------------------------
    ---------------------------------------|--------------------------------------
    ---------------------------------------|--------------------------------------
    ---------------------------------------|-9-----------------9---------9--------
    -9------------------9---------9--------|-7-----------------7---------7--------
    -7------------------7---------7--------|-0-----------------0---------0--------
                                                                                  
    
                                                                  ...end Riff C|
    -|---------------------------------------|----------------------------------|-
    -|---------------------------------------|----------------------------------|-
    -|---------------------------------------|-3--------------------------------|-
    -|-3------------------3---------3--------|-3--------------------------------|-
    -|-3------------------3---------3--------|-1--------------------------------|-
    -|-1------------------1---------1--------|----------------------------------|-
                                                                                  
    
    -|------------------------------------------------------------|---------------
    -|---------------------------------------------4----4----4----|---------------
    -|-----3----3----5----5----5----6----6----6-------------------|---------------
    -|------------------------------------------------------------|-5----5----5---
    -|------------------------------------------------------------|---------------
    -|------------------------------------------------------------|---------------
                                                                                  
    
    -----------------------------------------------|----------------------------|-
    -----------------------------------------------|----------------------------|-
    --------------------------------5----5----5----|-3-------------3------------|-
    --7----7----7----8----8----8-------------------|-3-------------4------------|-
    -----------------------------------------------|-1-------------1------------|-
    -----------------------------------------------|----------------------------|-
                                                                                  
    
    --------------------------|-------------------------|-------------------------
    --------------------------|-------------------------|-------------------------
    -------------3------------|-3-----------------------|-------------3-----------
    -3-----------3------------|-3-----------4-----------|-6-----------3-----------
    -3-----------1------------|-1-----------4-----------|-6-----------1-----------
    -1------------------------|-------------2-----------|-4-----------------------
                                                                                  
    
    -|----------------------------------------------------------------------------
    -|--------------2----------------------------------------------------5--------
    -|-7------------3----------------7-------------5---------------------6---8----
    -|-4------------3----------------4-------------6---------8---6---4---6--------
    -|----------------------------------------------------------------------------
    -|----------------------------------------------------------------------------
                                                                                  
    
    ------------------------------------------------------------------------------
    -----------------7------------------------------------------------------------
    -6---------------6----------------9--------------------------6----------------
    -----9---7---6---4----------------5-------------9------------8----------------
    ----------------------------------7--------------------------9----------------
    ------------------------------------------------------------------------------
                                                                                  
    
    ------------------------------------------------------------------------------
    -8----------------------------------------------------------------------------
    -9------------9------------5--------------------------------------------------
    -9------------9------------5--------------------7-----------------------------
    -7------------7------------6--------------------3-----------------------------
    ------------------------------------------------5-----------------------------
                                                                                  
    
    ------------------------------------------------------------------------------
    ------------------------------------------------------------------------------
    ------------------------------------------------------------------------------
    -3----------------------------------------------------------------------------
    -3----------------------------------------------------------------------------
    -4----------------------------------------------------------------------------
                                                                                  
    
    -------------------------------------|--------------------------------------|-
    -6-9-8-9-6-9-8-9-6-9-8-9-6-----------|---9-8-9---9-8-9---9-8-9--------------|-
    -------------------------------------|-6-------6-------6-------6------------|-
    -------------------------------------|--------------------------------------|-
    -------------------------------------|--------------------------------------|-
    -------------------------------------|--------------------------------------|-
                                                                                  
    
    ---8-6-8---8-6-8---8-6-8-------------|--------------------------------------|-
    -5-------5-------5-------5-----------|-6-9-8-9-6-9-8-9-6-9-8-9-6------------|-
    -------------------------------------|--------------------------------------|-
    -------------------------------------|--------------------------------------|-
    -------------------------------------|--------------------------------------|-
    -------------------------------------|--------------------------------------|-
                                                                                  
    
    ------------------------------------------------------------------------------
    -6-9-8-9-6-9-8-9-6-9-8-9---9-8-9---9-8-9---9-8-9---11-8-11---11-8-11---11-8---
    -------------------------6-------6-------6-------8---------8---------8--------
    ------------------------------------------------------------------------------
    ------------------------------------------------------------------------------
    ------------------------------------------------------------------------------
                                                                                  
    
    ------------------------------------------------------------------------------
    -11------------------------------------9-6-9---9-6-9---9-6-9---11-7-11---11-7-
    -------12-8-12----12-8-12----12-8-12-6-------6-------6-------6---------6------
    ----10---------10---------10--------------------------------------------------
    ------------------------------------------------------------------------------
    ------------------------------------------------------------------------------
                                                                                  
    
    --------------------------------------------------------------|---------------
    -11---11-7-11---8-5-8---8-5-8---8-5-8---9-6-9---9-6-9---9-6-9-|-9-------------
    ----6---------5-------5-------5-------5-------5-------5-------|-----------10--
    --------------------------------------------------------------|---------------
    --------------------------------------------------------------|---------------
    --------------------------------------------------------------|---------------
                                                                                  
    
    ----------------------------------------|--------------------------------11---
    -------9-11-9-------------------------9-|-8--------8--9--11--13-14-13-11------
    ----10--------12-10-12-10----------12---|-------------------------------------
    -10-----------------------13-11-13------|-------------------------------------
    ----------------------------------------|-------------------------------------
    ----------------------------------------|-------------------------------------
                                                                                  
    
    ----------------------|-------------------------------------------|-8---------
    -14-13-11-14-13-11----|--------------------14-13-10-13-14---------|---11-9-8--
    -------------------13-|-10------10--11--13------------------------|-----------
    ----------------------|-------------------------------------------|-----------
    ----------------------|-------------------------------------------|-----------
    ----------------------|-------------------------------------------|-----------
                                                                                  
    
    ------------------------------|-----------------------------------------------
    -9-11------8------------------|-----------------------------------------------
    ------------------10----------|-----------------------------------------------
    ------------------------------|-----------------------------------------------
    ------------------------------|-----------------------------------------------
    ------------------------------|-----------------------------------------------
                                                                                  
    
    -20-18-------|--------------------18-16-------|-----------------------------|-
    -------21-20-|-18-----------------------20-18-|-17--------------------------|-
    -------------|--------------------------------|-----------------------------|-
    -------------|--------------------------------|-----------------------------|-
    -------------|--------------------------------|-----------------------------|-
    -------------|--------------------------------|-----------------------------|-
                                                                                  
    
    ----------------------------------------------------------------------------|-
    ----------------13---14-------------17---14---13----------------------------|-
    -15--------15--------------------------------------15---13--------12--------|-
    ------15--------------------------------------------------------------------|-
    ----------------------------------------------------------------------------|-
    ----------------------------------------------------------------------------|-
                                                                                  
    
    -----------------------------------------------------------------------|------
    --------------------------13---13--------------------------------------|------
    -15---13--------13---15-------------15---15-------------15---15---13---|------
    -----------------------------------------------------------------------|------
    -----------------------------------------------------------------------|------
    -----------------------------------------------------------------------|------
                                                                                  
    
    -----------------------------------------------------------------------|------
    -----------------------------------------------------------------------|------
    -13---12---12------------12---13---15---15---13---13-------------------|------
    -----------------------------------------------------------------------|------
    -----------------------------------------------------------------------|------
    -----------------------------------------------------------------------|------
                                                                                  
    
    -----------------------------------------------------------------------|------
    --------------------------13---13--------------------------------------|------
    -13---13--------13---15-------------15---15-------------15---15---13---|------
    -----------------------------------------------------------------------|------
    -----------------------------------------------------------------------|------
    -----------------------------------------------------------------------|------
                                                                                  
    
    --------------------------------------|---------------------13-15-|-16--------
    --------------------------------------|------------13-14-16-------|-----------
    -13---12---12------------12---13---15-|-13------------------------|-----------
    --------------------------------------|---------------------------|-----------
    --------------------------------------|---------------------------|-----------
    --------------------------------------|---------------------------|-----------
                                                                                  
    
    ---------------16-|-18-------------------18-|-20------p18---18---p16---16-----
    ------17-18-20----|-------------18-20-21----|---------------------------------
    ------------------|-------------------------|---------------------------------
    ------------------|-------------------------|---------------------------------
    ------------------|-------------------------|---------------------------------
    ------------------|-------------------------|---------------------------------
                                                                                  
    
    -15----------------------------|-18------16--h18---15-----16-----20----18----
    -------18----------17-----------|---------------------------------------------
    --------------------------------|---------------------------------------------
    --------------------------------|---------------------------------------------
    --------------------------------|---------------------------------------------
    --------------------------------|---------------------------------------------
                                                                                  
    
    -18-----------16------------|-20------p18---18---p16---16---15---------------
    ----------------------------|-------------------------------------18----------
    ----------------------------|-------------------------------------------------
    ----------------------------|-------------------------------------------------
    ----------------------------|-------------------------------------------------
    ----------------------------|-------------------------------------------------
                                                                                  
    
    ------------|-18-------16--h18---15------16-----20-----18-----18---------16---
    -17---------|-----------------------------------------------------------------
    ------------|-----------------------------------------------------------------
    ------------|-----------------------------------------------------------------
    ------------|-----------------------------------------------------------------
    ------------|-----------------------------------------------------------------
                                                                                  
    
    -----|-16----------------------------------|---------------------------------|-
    -----|-13----------------------------------|---------------------------------|-
    -----|-------------------------------------|--Piano-part-and-Narrator-voice--|-
    -----|-------------------------------------|---------------------------------|-
    -----|-------------------------------------|---------------------------------|-
    -----|-------------------------------------|---------------------------------|-
                                                                                  
    
    -||------------------------------------------------------------------|--------
    -||------------------------------------------------------------------|--------
    -||*-----------------------------------------------------------------|--------
    -||*-3-3-3-3-3-3-3-3-3-3-3-3-3-3-3-3-3-3-3-3-3-3-3-3-3-3-3-3-3-3-3-3-|--------
    -||------------------------------------------------------------------|-3-3----
    -||------------------------------------------------------------------|--------
                                                                                  
    
    -------------------------------------------------------------|----------------
    -------------------------------------------------------------|----------------
    -------------------------------------------------------------|----------------
    -------------------------------------------------------------|----------------
    -3-3-3-3-3-3-3-3-3-3-3-3-3-3-3-3-3-3-3-3-3-3-3-3-3-3-3-3-3-3-|-4-4-4-4-4-4-4--
    -------------------------------------------------------------|----------------
                                                                                  
    
    ---------------------------------------------------|--------------------------
    ---------------------------------------------------|--------------------------
    ---------------------------------------------------|--------------------------
    ---------------------------------------------------|--------------------------
    -4-4-4-4-4-4-4-4-4-4-4-4-4-4-4-4-4-4-4-4-4-4-4-4-4-|-1-1-1-1-1-1-1-1-1-1-1-1--
    ---------------------------------------------------|--------------------------
                                                                                  
    
    ------------------------------------------||----------------15---17----18-----
    ------------------------------------------||-17--------17---------------------
    -----------------------------------------*||------16--------------------------
    -----------------------------------------*||----------------------------------
    -1-1-1-1-1-1-1-1-1-1-1-1-1-1-1-1-1-1-1-1--||----------------------------------
    ------------------------------------------||----------------------------------
                                                                                  
    
    -19-------------------------------|-------------------------12-15-12----------
    --------19----17----19b----19-----|-17------------------13----------13-------
    ----------------------------------|-------------------12----------------12----
    ----------------------------------|----------------14-------------------------
    ----------------------------------|-------------15----------------------------
    ----------------------------------|-------------------------------------------
                                                                                  
    
    ----12-/20-15----------15-/24----22-----20p19h20-|-17-------------17----17----
    -13-----------17----17---------------------------|----------------------------
    -----------------17------------------------------|----------------------------
    -------------------------------------------------|----------------------------
    -------------------------------------------------|----------------------------
    -------------------------------------------------|----------------------------
                                                                                  
    
    -19----19b----|-19----------------------------------------|----------------|-
    --------------|--------------------------------------------|----------------|-
    --------------|--------------------------------------------|-Keyboard-solo--|-
    --------------|--------------------------------------------|----------------|-
    --------------|--------------------------------------------|----------------|-
    --------------|--------------------------------------------|----------------|-
                                                                                  
    
    -11-7-----------11-/14-11----------------11-|-11-7-----------11-/19-14--------
    ------7-------7-----------12----------12----|------7-------7-----------16-----
    --------8---8----------------11----11-------|--------8---8----------------16--
    ----------9---------------------13----------|----------9----------------------
    --------------------------------------------|---------------------------------
    --------------------------------------------|---------------------------------
                                                                                  
    
    ----14-|-/23---19-h23-p19---------------------------------------------------|-
    -16----|--------------------22---20----22-----19-----h20-p19-h20-p19--------|-
    -------|--------------------------------------------------------------------|-
    -------|--------------------------------------------------------------------|-
    -------|--------------------------------------------------------------------|-
    -------|--------------------------------------------------------------------|-
                                                                                  
    
    -|-------------|-------------------7---7---------------|-----------------8----
    -|-------------|-------5---5-8-5-8---8-----------------|---------10---10---10-
    -|-4h5p4-------|-----4---4---------------9h109---------|-------9----9---------
    -|-------7-5-4-|---5---------------------------12-10-9-|----10----------------
    -|-------------|-7-------------------------------------|-12-------------------
    -|-------------|---------------------------------------|----------------------
                                                                                  
    
    -8-12-8-12-------------------|-------------------12----12-15-12-15------------
    -----------------------------|----------13----13----13------------------------
    -----------12h14p12----------|-------12----12----------------------16h17p16---
    --------------------15-14-12-|----14------------------------------------------
    -----------------------------|-15---------------------------------------------
    -----------------------------|------------------------------------------------
                                                                                  
    
    ----------|-------------------15----15-19-15-19-|----------|----------|----------|-
    ----------|----------17----17----17-------------|----------|----------|----------|-
    ----------|-------16----16----------------------|--Riff-A--|--Riff-B--|--Riff-C--|-
    -19-17-16-|----17-------------------------------|----------|----------|----------|-
    ----------|-19----------------------------------|----------|----------|----------|-
    ----------|-------------------------------------|----------|----------|----------|-
    
    
    ------------------------------------------------------------
    ------------------------------------------------------------
    ---Piano-outro----------------------------------------------
    ------------------------------------------------------------
    ------------------------------------------------------------
    ------------------------------------------------------------
     

    Тональность:

    Нет текста!



    Назад
    Рекомендуем посмотреть другие песни исполнителя «Rhapsody»:

    • Комментарии Facebook ()
    • Комментарии ВКонтакте



    Добавить в Избранное Браузера
    Сохранить здесь Очистить


    x

    0


    +
    -

    +
    -

    -

    Авторизация





    Зарегистрироваться

    M

    Дата и время

    • 19:33:58
       

    Социальные ссылки


    Наши приложения

    • Muzbank App Play Market
    • Muzbank Amazon App