MUZBANK



A Most Complete Bank Of Music Information

МУЗЫКАЛЬНО-ИНФОРМАЦИОННЫЙ БАНК

Поиск по сайту







    RRhapsody • The March Of The Swordmaster (аккорды и текст - chords & lyrics)


    296

    Print

    Видео «The March Of The Swordmaster (Rhapsody)»

    Видео клипы к песне подбираются автоматически сайтом youtube. Возможны некоторые несоответствия клипов песне.

    ↑ Спрятать рекламу ↑



    Download


     
     
    
     Normal Tuning 
    
      Violin intro arranged for guitar (Gtr.1):
    E-------------12-----------------12-/14----------14-15-14---------------------------|
    B--/-12-14-15----15-14-12--14-15--------17-15-17----------17-15-17-15-14--12-14-15-|
    G*----------------------------------------------------------------------------------|
    D*----------------------------------------------------------------------------------|
    A-----------------------------------------------------------------------------------|
    E-----------------------------------------------------------------------------------|
    
    E-12---------------------.-.---.-------14-14-14----14-15-----14-15-17-15-14---------|
    B----15-14-12-/15-15-14-12-1211/-12~-----------17--------17----------------17-15-14|
    G-----------------------------------------------------------------------------------|
    D-----------------------------------------------------------------------------------|
    A-----------------------------------------------------------------------------------|
    E-----------------------------------------------------------------------------------|
    
                                                            x2    Acoustic Guitar 1
    E----------14-14-14-12-14-15-14--12--------.--.--.---------||-----------------------|
    B-15~-12~---------------------------15-14-12-1211/-12~~---||-----------------------|
    G---------------------------------------------------------*||-----------------------|
    D---------------------------------------------------------*||-----------------------|
    A----------------------------------------------------------||---2-----2----4----/-5-|
    E----------------------------------------------------------||------2----------------|
                                                               || Acoustic Guitar 2
                                                              E||-----------------------|
                                                              B||-----------------------|
                                                              G||---4~----7-6---6-7-9---|
                                                              D||-------------9---------|
                                                              A||-----------------------|
                                                              E||-----------------------|
    
    E-----------------------------------------------------------------------------------|
    B-----------------------------------------------------------------------------------|
    G-----------------------------------------------------------------------------------|
    D-----------2--------------------------.-.-.----------------------------------------|
    A-----5-------5-4-2-----2~~------------2-2-1--2~--5-----5---5-4-2------2-4-2----/-5-|
    E--5-----------------2-------------------------------5------------5--5--------2-----|
                                                                                        |
    E---/-5---------------------------10-1010-9-10~-----------10-9-7-5~------------/10-|
    B-------8-7-8-7-5-7-----7-5-7-8-8------.-.-.----------------.-.------7-8~--7--------|
    G-----------------------------------------------------------------------------7-----|
    D-----------------------------------------------------------------------------------|
    A-----------------------------------------------------------------------------------|
    E-----------------------------------------------------------------------------------|
    
                                                   Dist.
    E--------------------------------------------|--------------------------------------|
    B--------------------------------------------|--------------------------------------|
    G--------------------------------------------|---4-------4-----7-------7-slight--4--|
    D----------------------------.--.------------|---4---4---4-----7---7---7--A.H.---4--|
    A-----5~-----------5--4--2---2--2--.---2~~---|---2---4---2-/4~-5---7---5--4~----2--|
    E--5-------------------------------2---------|-------2-------------5----------------|
                                                 |
    E-----10-12-14-14-14-12-10---.--.--.---.-----||
    B--------------------------12-12-11--12~~---||
    G--------------------------------------------||
    D--------------------------------------------|| 
    A--------------------------------------------||
    E--------------------------------------------||
    
    E-----------------------------------------------------------------------------------|
    B-----------------------------------------------------------------------------------|
    7------4------------4-----7-----2---4---/-7-------------4~~-------------------------|
    D--4---4------------4-----7-----2---4---/-7-------------4~~-------------------------|
    A--4---2--2--2--1-/-2-----5-----0---2---/-5---2--2--1-/-2~~-------------------------|
    E--2---------------------------------------------------------5-3-2-2-2-2-2-/7-7-6-6-|
             pm......|                           pm......|      pm......................
    
    E-----------------------------------------------------------------------------------|
    B--------------------------------------------------11-------------------------------|
    G--------------------------6--6--6---9-/-14--12--11-------------------------------|
    D-----------------------/5-4--4--4---9-/-14--12--11-------A.H.-/5-5-5-------------|
    A-------5-54-4-4-4-4/5--------------7-/-12--10---9--12p10p9~~--------7-7-7/9-9--|
    E-6-6-6-----------------------------------------------------------------------------|
     .........................|                                     pm................|
    
                                                           (end Intro)    Verse 1
    E------------------------------------------------------------------||---------------|
    B------------------------------------------------------------------||---------------|
    G---------------------------4---4---4--4--4-------------------||*--------------|
    D---------------------------4---4---4--4--4-------------------||*--2---------2-|
    A-9~--5~--4h5-7-7-7-7p5p4--2---2---2--2--2-----2-------------||---2--2-2-2--2-|
    E------------------------------------------------------2-3-2-3-2--||---0--0-0-0--0-|
                  pm....|                               pm...........|        pm....|
    
    E-----------------------------------------------------------------------------------|
    B-----------------------------------------------------------------------------------|
    G------------------------4---------4---------4--------------------------------------|
    D---------2--------------4--4-4-4--4--4-4-4--4--4-4-4--------------5---------5------|
    A--2-2-2--2--------------2--2-2-2--2--2-2-2--2--2-2-2-2-4-5-4-2----5--5-5-5--5--5-5-|
    E--0-0-0--0-0-0-0-0-2-3-----------------------------------------5--3--3-3-3--3--3-3-|
      pm....|  pm..........|   pm....|   pm....|   pm................|   pm....|   pm...
    
                                                                 x2   Bridge
    E------------------------------------------------------2~---------------------------|
    B--------------------------------------------------------2~-----|-------------------|
    G--------------------------/-7---------7-------------------3~--*|---4---4---4----|
    D----5---------5-----------/-7--7-7-7--7----------4~~----------*|---4---4---4---|
    A-5--5--5-5-5--5-----------/-5--5-5-5--5--5-7-5---4~~-----------|---2---2---2---|
    E-3--3--3-3-3--3-3-3-3-5-7------------------------2~~------------------------------|
     ..|   pm....|  pm........|    pm....|   pm....|
                                                                                  Chorus
    E-----------------------------------------------------------------------------------|
    B---------------------------------------------------------------------------|-------|
    G------4---4---4---3~---------------------------------4p3----------------|--4----|
    D-3~---4---4---4---3~--------------------5p4----------------5p4----------|--4---4|
    A-3~---2---2---2---1~--------5p4----------------------------------4h5p4--|--2---4|
    E-1~----------------------2-2-2-----2-2-2-2-----2-2-2-2------2-----2---------------2|
                             pm....|   pm......|   pm......|    pm    pm
    
    E-----------------------------------------------------------------------------------|
    B-----------------------------------------------------------------------------------|
    G--4-------7-------7-------4-------4------------4-----7-----2---4--/-7-------------4|
    D--4-------7---7---7-------4---4---4------------4-----7-----2---4--/-7-------------4|
    A--2--/4~--5---7---5--4~--2---4---2---2--2--1-/2-----5-----0---2--/-5---2--2--1-/-2|
    E--------------5---------------2----------------------------------------------------|
                                          pm......|                         pm......|
    
    E-----------------------------------------------------------------------------------|
    B----|---------------------------------------------------------------------------11~|
    G~~--|---------------------------------------------------6--6--6---9-/-14--12--11~|
    D~~--|------------------------------------------------/5-4--4--4---9-/-14--12--11~|
    A~~--|-------------------------------/5-5p4-4-4-4-4-5--------------7-/-12--10---9~|
    E-------5p3-2-2-2-2-2-/7-7p6-6-6-6-6------------------------------------------------|
           pm...............................................|
    
                                                           Guitar Solo 1
    E---------------------------------------------------------------------A.H.----------|
    B------------------|-----------|----------|----------|-----------------7~-----------|
    G------------------|--Verse-2--|--Bridge--|--Chorus--|--4/6-7-9-9-7-6-----7------7-6|
    D-------A.H.-------|-----------|----------|----------|----------------------9~------|
    A--12p10p9~--------|-----------|----------|----------|------------------------------|
    E------------3-2-------------------------------------------------------------------|
                 pm..|
    
    E---------A.H.--------------------------9p6---10p7---7/10h14-15p12----12-14-15-14-p-|
    B-----7-9-10~------------7-8-10-/12p8-------7------7---------------12---------------|
    G-7-9---------6~--9-7-9--------------9---------------------------------------------|
    D-----------------------------------------------------------------------------------|
    A-----------------------------------------------------------------------------------|
    E-----------------------------------------------------------------------------------|
    
    E-10----------10--------------------------------------A.H.-------------------A.H.---|
    B----12----12----14-12-11----------11~~----------------7~----------------7-9-10~----|
    G-------11----------------13-11-13-------4/6-7-9-9-7-6-----7-----7-6-7-9---------6~|
    D------------------------------------------------------------9----------------------|
    A-----------------------------------------------------------------------------------|
    E-----------------------------------------------------------------------------------|
    
    E-----------------------9p6---10p7---7/10h14-15p12----12-14-15-14p10----------10----|
    B--------7-8-10-/12p8-------7------7---------------12----------------12----12----14-|
    G--9-7-9--------------9-------------------------------------------------11----------|
    D-----------------------------------------------------------------------------------|
    A-----------------------------------------------------------------------------------|
    E-----------------------------------------------------------------------------------|
    
                            Guitar Solo 2 (Two Guitars)
    E------------------------14--17-15h17p15-14-/21p17----------17p12----------/12p9----|
    B-12-11-------11-12~--|--15--19-17h19p17-15-/22p17-17-------------14----14-------10-|
    G-------11-13---------|----------------------------18-18~------------14-------------|
    D---------------------|-------------------------------19~---------------------------|
    A---------------------|-------------------------------------------------------------|
    E-----------------------------------------------------------------------------------|
    
    E------/9p5-------5h9/12p9---------9h12--/-15--19-17h19p17-15-/-22p19---------19p14-|
    B---10------5---5----------10---10-------/-17--20-19h20p19-17-/-24p19-19------------|
    G-9-----------6---------------9---------------------------------------19-19~--------|
    D------------------------------------------------------------------------21~--------|
    A-----------------------------------------------------------------------------------|
    E-----------------------------------------------------------------------------------|
    
    E----------/14p10----------/10p7-------7h10-/14p12----------12h14--/-19--22-21h22p21|
    B-15----15--------12----12-------7---7-------------11----11--------/-20--24-22h24p22|
    G----16--------------11------------7------------------10----------------------------|
    D-----------------------------------------------------------------------------------|
    A-----------------------------------------------------------------------------------|
    E-----------------------------------------------------------------------------------|
    
    E-19----------------/-13----13-16-13-------14h18-/21-19h21p19-18~--19-21-21b(22)r21-|
    B-20-19p15---------/-15-15-15-18-15-15p14-14h19-/23-21h23p21-19~--21-23-23b(24)r23-|
    G-----------16-----------16----------16p15------------------------------------------|
    D--------------16~------------------------------------------------------------------|
    A-----------------------------------------------------------------------------------|
    E-----------------------------------------------------------------------------------|
    
    E--19-21-22~~-----------------------------------------------------------------------|
    B--21-23-24~~--|---------------|----------------------------------------------------|
    G--------------|--Chorus-(x3)--|----------------------------------------------------|
    D--------------|---------------|------------------------------------------------/5--|
    A--------------|---------------|-------------------------------/5-5p4-4-4-4-4-5-----|
    E---------------------------------5p3-2-2-2-2-2-/7-7p6-6-6-6-6----------------------|
                                     pm...............................................|
    
    E-----------------------------------------------------------------------------------|
    B--------------------------11~------------------------------------------------------|
    G--6--6--6---9-/-14--12--11~------------------------------------------------------|
    D--4--4--4---9-/-14--12--11~------A.H.-/5-5-5-------------------------------------|
    A------------7-/-12--10---9~-12p10p9~---------7-7-7/9-9-9~--5~-4h5-7-7-7-7p5p4---|
    E-----------------------------------------------------------------------------------|
                                             pm..............|           pm.....|
    
    E---------------------------||
    B---------------------------||
    G--4---4---4--4--4-----|| end
    D--4---4---4--4--4----||
    A--2---2---2--2--2----||
    E--------------------------||
    
    ----------------------------------------------------------------------------------
    
      Rhythm Guitar during Guitar Solo 1
    E-----------------------------------------------------------------------------------|
    B-----------------------------------------------------------------------------------|
    G-----------------------------------------------------------------------------------|
    D--------------------------------------------------------------------------------5~-|
    A---2-2-2-2-2-2-2-2-2-2-2-2-2-2-2-----------------------------------1-1-1/-2~-5~----|
    E---------------------------------5-4-2-2-2-2-2-2-2-2-2-2-2-2/3-3-3-----------------|
      pm.....................................................................|
    
    E-----------------------------------------------------------------------------------|
    B-----------------------------------------------------------------------------------|
    G-----------------------------------------------------------------------------------|
    D----4~-----------------4-5-4-2-----------------------------------------------------|
    A-7~----5~----------------------5-4-2-2-2-2-2-2-2-2-2-2-2-2-2-2-2-------------------|
    E----------2-2-2-2-2-2-------------------------------------------5-4-2-2-2-2-2-2-2-|
              pm........................................................................
    
    E-------------------------------------------------------------||
    B-------------------------------------------------------------||
    G-------------------------------------------------------4~~---|| end
    D-----------------------------5~----4~------------------4~~---||
    A-----------------1-1-1/2~-5~----7~----5~---------------2~~---||
    E-2-2-2-2-2/3-3-3-------------------------2-2-2-2-2-2--------||
     ......................|                 pm...........|
    
      Rhythm Guitar during Guitar Solo 2
    E-----------------------------------------------------------------------------------|
    B-----------------------------------------------------------------------------------|
    G--7---------------------------------------------------------------4--4-------------|
    D--7-------------------------7--7--7--7----------------------------4--4-------------|
    A--5-5-5-5-7-9---------------7--7--7--7---0-0-0-0-2-42-2-2-2-2-2--2--2--2-0-2-5-2-0|
    E--------------5-5-5-5-5-5--5--5--5--5---------------------------------------------|
        pm.....................|             pm......................|      pm..........
    
    E---------------------------------------------------------------------||
    B---------------------------------------------------------------------||
    G---------------4-----------------------------------------------------|| end
    D---------------4--/-4~---6--------------------4----------------------||
    A------------2/-2--/-5~--5--------------------4---------------9-----||
    E-3-3-3-3-5-------------4--h7~--2-2-2-2-2-2-2-2-2-2-2-2--2-------||
     .............|                   pm..........| pm........|
    
    
    ----------------------------------------------------------------------------------
    
    
    =======================
    =TABLATURE EXPLANATION=
    =======================
    
    A.H. = Artificial Harmonic
    
    pm..| = Palm mute
    
    h = hammer on
    
    p = pull off
    
    / = slide up
    
     = slide down
    
    ~ = Vibrato
    
    b() = Bend
    
    x = Pick Slide
    
    --------
    --------
    ---12--- = Tremolo pick
    ----/---
    ----/---
    ----/---
    
    ---.---
    --12--- = Staccato
    -------
    -------
    -------
    
    |     |
    |     |
    |*   *| = repeat from * to *
    |*   *| 
    |     |
     

    Тональность:

    Нет текста!



    Назад
    Рекомендуем посмотреть другие песни исполнителя «Rhapsody»:

    • Комментарии Facebook ()
    • Комментарии ВКонтакте



    Добавить в Избранное Браузера
    Сохранить здесь Очистить


    x

    0


    +
    -

    +
    -

    -

    Авторизация





    Зарегистрироваться

    M

    Дата и время

    • 13:36:35
       

    Социальные ссылки


    Наши приложения

    • Muzbank App Play Market
    • Muzbank Amazon App