MUZBANK



A Most Complete Bank Of Music Information

МУЗЫКАЛЬНО-ИНФОРМАЦИОННЫЙ БАНК

Поиск по сайту







    RRhapsody • Trolls In The Dark (аккорды и текст - chords & lyrics)


    198

    Print

    Видео «Trolls In The Dark (Rhapsody)»

    Видео клипы к песне подбираются автоматически сайтом youtube. Возможны некоторые несоответствия клипов песне.

    ↑ Спрятать рекламу ↑



    Download


     
     
     
     Normal Tuning 
    
    	       Riff 1
    E-----------------------------8~-------------------------------------8~-------------|
    B------------|-----10-9-10-12-----12-10-9-10-11-9-10------10-9-10-12-----12-10-9-10-|
    G---Intro----|*--9------------------------------------9-9---------------------------|
    D--(21-sec)--|*---------------------------------------------------------------------|
    A------------|----------------------------------------------------------------------|
    E-----------------------------------------------------------------------------------|
    
    E--------------------10-12-13--12-10-------/12--10----------/13-12h13p12----12-11h12|
    B-11-9-10~--10-12-13-----------------13-11---------13-12-10--------------10---------|
    G-----------------------------------------------------------------------------------|
    D-----------------------------------------------------------------------------------|
    A-----------------------------------------------------------------------------------|
    E-----------------------------------------------------------------------------------|
    
    				     x2    Riff 2
    Ep11----11-10h11p10---------------------------5-4-5-7-/8p5-------5-7p4-------4-8p5--|
    B----10-------------13-12h13p129-10~---|---5--------------5---5-------5---5-------5|
    G--------------------------------------*|*-------------------5-----------4----------|
    D--------------------------------------*|*------------------------------------------|
    A---------------------------------------|-------------------------------------------|
    E-----------------------------------------------------------------------------------|
    
    E-----5-/12p8---------8-10p7-------7------------/10----10-12-13p10----------10------|
    B---5---------10---10--------8---8---8-------8------13-------------10----10----10---|
    G-5--------------9-------------7-------7---7--------------------------10----------10|
    D----------------------------------------9------------------------------------------|
    A-----------------------------------------------------------------------------------|
    E-----------------------------------------------------------------------------------|
    	    _________________________________________________ ______________________
    	   |1.						     |2.
    p----------|/17-10-13p10--------/-12p8---------8-------------|/17p13----------13-/20|
    B-------10-|-------------10------------10---10---10----------|-------15----15-------|
    G----10----|----------------10------------9---------9--------|----------14----------|
    D-12-------|------------------------------------------10-----|----------------------|
    A----------|---------------------------------------------12--|----------------------|
    E----------|-------------------------------------------------|----------------------|
     ________________________________
    				 |  Riff 3
    Ep17----------17h20-17~----------||--12----12-14-15p12----------------12/15-14p10---|
    B----17----17-----------17~------||-----15-------------12----------12-------------10|
    G-------17------------------17~--||*----------------------12----12------------------|
    D--------------------------------||*-------------------------14---------------------|
    A--------------------------------||-------------------------------------------------|
    E--------------------------------||-------------------------------------------------|
    
    E-------------10/14-12p9---------9/12-11p7-----------7h11-/15-12----15-14-10----15-1|
    B----------10------------10---10-----------7-------7-------------12----------10-----|
    G-11----11------------------9----------------8---8----------------------------------|
    D----12----------------------------------------9------------------------------------|
    A-----------------------------------------------------------------------------------|
    E-----------------------------------------------------------------------------------|
    
     		    x2              Riff 4
    E4h15p14-12-------12~-------------------17-20-19-17-20-19-20-17-20-19-17--15-19-17|
    B-----------14-16------|----------|--17---------------------------------------------|
    G---------------------*|--Riff-2--|-------------------------------------------------|
    D---------------------*|---with---|-------------------------------------------------|
    A----------------------|--Fill-1--|-------------------------------------------------|
    E-----------------------------------------------------------------------------------|
    
    E19-15-19-17-15--13-17-15-17-13-17-15-13--12-15-13-15-12-15-13-12--10-13-12-13---|
    B---------------------------------------------------------------------------------12|
    G-----------------------------------------------------------------------------------|
    D-----------------------------------------------------------------------------------|
    A-----------------------------------------------------------------------------------|
    E-----------------------------------------------------------------------------------|
    
    E-------------/8-12-10-12-------------/10-13-12-13----------------------------------|
    B-12-15-13-12-------------10-13-12-10--------------12-15-13-12--10--------------|--|
    G-------------------------------------------------------------------9------------|--|
    D---------------------------------------------------------------------10-9-------|--|
    A--------------------------------------------------------------------------12~~--|--|
    E-----------------------------------------------------------------------------------|
    
    E-----------------------------------------------------------------------------------|
    B---------|----------|----------|----------|----------|-----------------------------|
    G-Riff-1--|--Riff-2--|--Riff-3--|--Riff-2--|--Riff-4--|-----------------------------|
    D---------|----------|----------|---with---|----------|-----------------------------|
    A---------|----------|----------|--Fill-1--|----------|-----------------------------|
    E--------------------------------------------------------5-4h5p4-1-0-0--0h1--4~--5-5|
    
    E---------------------------||
    B---------------------------||
    G---/5-4--------------------|| end
    D--------7-5-3--------------||
    A--------------7-5-3--------||
    E~-------------------7-5---||
    
    --------------------------------------------------------------------------------------
    
      Fill 1
    E------------||
    B------------||
    G------------|| end
    D------------||
    A------------||
    E--5-4-5-7~--||
    
      Rhythm Guitar during Riff 1
    E-----------------------------------------------------------------------------------|
    B-----------------------------------------------------------------------------------|
    G-------------------------------------------------9--8--7------------------------|
    D--2-/-7--------------2-/-7-------------8--7--9--8--7--5-/-7~----------------|
    A--2-/-7--------------2-/-7-------------8--7--7--6--5--5-/-7~-----7---7---7--|
    E--0-/-5--4~-6~-5~~---0-/-5--4~-6~-5~---6--5--------------3-/-5~---5---5---5---5|
    								      pm............
    
    E-----------------------------------------------------------------------------------|
    B-----------------------------------------------------------------------------------|
    G-----------------------------------------------------------------------------------|
    D-----------------------------------------------------------------------------------|
    A-7---5---5---7---7----7---7---7---7---5---5---7---7----8---8---8---8----7---7---7--|
    E---4---7---5---5----5---5---5---5---4---7---5---5---/6---6---6---6---5---5---5---5|
     ...................................................................................
    
    E-----------------------------------||
    B-----------------------------------||
    G-----------------------------------|| end
    D------9---9---8---8---7------------||
    A-7-/7---7---6---6---5------5-/-7~--||
    E------------------------3---/-5~--||
     ............................|
    
      Rhythm Guitar during Riff 2
    E-----------------------------------------------------------------------------------|
    B-----------------------------------------------------------------------------------|
    G-----------------------------------------------------------------------------------|
    D------------------------------------------3--2-------------------------------------|
    A------------------3--2-----5-----5-----5--------3------------------3--2-----5-----5|
    E--5~-0~--5--4--5--------3-----5-----5-------------5~-0~--5--4--5--------3-----5---|
    
    E----------------||
    B----------------||
    G----------------|| end
    D----------------||
    A-----5----------||
    E--5-----0--5~---||
    
      Rhythm Guitar during Riff 3		     x2
    E-----------------------------------------------||
    B-----------------------------------------------||
    G*--9----7----------------9----7---8-----------*|| end
    D*--9----7----7-----4~----9----7---9------2~~--*||
    A---7----5----7-----4~----7----5---6------2~~---||
    E-------------5--3--2~----------------7~--0~~---||
    
      Rhythm Guitar during Riff 4
    E------------------------------------------------------||
    B------------------------------------------------------||
    G--10----9----7----5-----------------------------------|| end
    D--10----9----7----5---3------2-----3-----7----7~~----||
    A---8----7----5----3---5--5---3--3--5--5--7----7~~----||
    E-------------------------7------5-----7--5----5~~----||
    
    --------------------------------------------------------------------------------------
    
    =======================
    =TABLATURE EXPLANATION=
    =======================
    
    A.H. = Artificial Harmonic
    
    pm..| = Palm mute
    
    h = hammer on
    
    p = pull off
    
    / = slide up
    
     = slide down
    
    ~ = Vibrato
    
    b() = Bend
    
    x = Pick Slide
    
    --------
    --------
    ---12--- = Tremolo pick
    ----/---
    ----/---
    ----/---
    
    ---.---
    --12--- = Staccato
    -------
    -------
    -------
    
    |     |
    |     |
    |*   *| = repeat from * to *
    |*   *| 
    |     |
     

    Тональность:

    Нет текста!



    Назад
    Рекомендуем посмотреть другие песни исполнителя «Rhapsody»:

    • Комментарии Facebook ()
    • Комментарии ВКонтакте



    Добавить в Избранное Браузера
    Сохранить здесь Очистить


    x

    0


    +
    -

    +
    -

    -

    Авторизация





    Зарегистрироваться

    M

    Дата и время

    • 12:45:15
       

    Социальные ссылки


    Наши приложения

    • Muzbank App Play Market
    • Muzbank Amazon App