MUZBANK



A Most Complete Bank Of Music Information

МУЗЫКАЛЬНО-ИНФОРМАЦИОННЫЙ БАНК

Поиск по сайту







    RRhapsody • Warrior Of Ice (аккорды и текст - chords & lyrics)


    234

    Print

    Видео «Warrior Of Ice (Rhapsody)»

    Видео клипы к песне подбираются автоматически сайтом youtube. Возможны некоторые несоответствия клипов песне.

    ↑ Спрятать рекламу ↑



    Download


     
    
    
    RHAPSODY - WARRIOR OF ICE
    Music:Staropoli and Turilli
    
    Transcribed By: Niclas Buss
    
    Email: Nbjbuss@hotmail.com
    
    Please mail me if you find mistakes!
    
    Normal Tuning (EBGDAE)!
    
    E---------------------------------------------------------------------------------|
    B---------------------------------------------------------------------------------|
    G---------------------------------------------------------------------------------|
    D--4---3---------4-------4-------2---4----4---3---------4---4-------7-------------|
    A--2---1---4--4--2---2---2---5---0---2----2---1---4--4--2---2---5---5---4~--4--4--|
    E----------2--2------0-------3--------------------2--2----------3-------2~--2--2--|
    
    E---------------------------------------------------------------------------------|
    B--------|------------------------------------------------------------------------|
    G--------|------------------------------------------------------------------------|
    D--------|----4-4-4-0-0-4--4---------------------4-4-4-4-1-1-4-4------------------|
    A--4~~---|--2--------------2--4-4-4-4-0-0-4---4--2-------------2--4-4-4-4-0-0-4---|
    E--2~~------------------------2---------------2-------------------2---------------|
    	     pm..........|     pm...........|     pm..........|    pm..........|
    
      Riff 1								      end
    E---------------------------------------------------------------------------------|
    B---------------------------------------------------------------------------------|
    G*--------------------------------------------------------------------------------|
    D*--------------------------------------------------------------------------------|
    A---2-2-2-5-5-5-4-4-4-2-2-2-0----------------------------2-2-2-5-5-5-4-2-4-5--2---|
    E-----------------------------2-2-2-5-5-5-4-4-4-2-2-2-0-----------------------0---|
       pm.......................................................................|
    
     Riff 1
    E---------------------------------------------------------------------------------|
    B--(x2)|--------------------------------------------------------------------------|
    G-----*|--------------------------------------------------------------------------|
    D-----*|--3-----------------------------------------------------------------------|
    A--4---|--1--2--2-2-2--2-2-2--2-2-2--2--2-2-2--2-2-2--2-2-2--2--2-2-2--2-2-2--2-2-|
    E--2------------------------------------------------------------------------------|
    		pm...................| pm...................|   pm................
    
    E---------------------------------------------------------------------------------|
    B---------------------------------------------------------------------------------|
    G---------------------------------------------------------------------------------|
    D---------------------------------------------------------------------------------|
    A2-5--5-5-5--5-5-5--5-5-5--2--2-2-2--2-2-2--2-2-2--2--2-2-2--2-2-2--2-2-2--2--2-2-|
    E---------------------------------------------------------------------------------|
     .| pm....................| pm...................|  pm...................|   pm...
    
    E---------------------------------------------------------------------------------|
    B---------------------------------------------------------------------------------|
    G---------------------------------------------------------------------------------|
    D---------------------------------------------------------------------------------|
    A-2--2-2-2--2-2-2--2--2-2-2--2-2-2--2-2-2--5--5-5-5--5-5-5--5-5-5--2--2-2-2--2-2-2|
    E---------------------------------------------------------------------------------|
     ................|   pm..................|   pm..................|  pm............
    
    					       Verse 1
    E---------------------------------------------------------------------------------|
    B--------------------------------------------|------------------------------------|
    G------------------------------------6--11~--|*-----------------------------------|
    D----------9--9--9----------------3--4---8~--|*-----------------------------------|
    A--2-2-2---7--7--7---9--9--9---4--1----------|--2-2-2-4-4-4-5-5-5-5--2-2-2--------|
    E--------------------7--7--7---2-------------------------------------------5-5-5-2|
     .......| 				       pm.................................
    
    E---------------------------------------------------------------------------------|
    B---------------------------------------------------------------------------------|
    G--------------------------------4h5p4--------------------------------------------|
    D--------------------------------------4h5p2-------------------------------------|
    A-------5-5-5-5---------2--2-2-2--------------2-2-2-4-4-4-5-5-5--2-2-2--2-2-2--2-2|
    E-2-2-2---------5-5-5-5-----------------------------------------------------------|
     ...............................|	     pm...................................
    
    					   x2  Bridge
    E--------------------------------------------------------------------------------|
    B---------------------------------------------|----------------------------------|
    G--------------------------------------------*|----------------------------------|
    D--------------------------------------------*|--5-------4-------5---9--10--11-|
    A-2--2-2-2--5-5-5-5---------2-5-4-2-1-----1---|--3---4---2---5---3---7---8---9-|
    E-------------------5-5-5-5-----------2-4-------------2--------3-----------------|
     ...........................................|						
    
      Chorus
    E--------------------------------------------------------------------------------|
    B--------------------------------------------------------------------------------|
    G--------------------------------------------------------------------------------|
    D--4---4-2-2-----------------------------------------------------------4---4-2-2-|
    A--2---2-0-0--3-3-3--3-3-3--3-3-3--3-3-3-/7-7-7--7-7-7--7-7-7--7-7-7---2---2-0-0-|
    E--------------------------------------------------------------------------------|
    	     pm.....................................................|
    
    	     Riff 2
    E--------------------------------------------------------------------------------|
    B----------|---------------------------------------------------------------------|
    G----------|---------------------------------------------------------------------|
    D----------|---------------------------------------------------------------------|
    A--5---4---|--5-5-5-7-7-7-8-8-8-5-5-5-----------------------------5-5-5-8-8-8-7-5|
    E--3---2------------------------------8-5-5-5-8-8-8-7-7-7-5-5-5-3----------------|
    	     ,pm.................................................................
    
      end Riff 2             Verse 2							
    E--------------------------------------------------------------------------------|
    B------------|----------|--------------------------------------------------------|
    G------------|--Riff-1--|--------------------------------------------------------|
    D------------|----------|--------------------------------------------------------|
    A-7-8--5--7--|----------|--2-2-2-4-4-4-5-5-5-5--2-2-2----------------5-5-5-5-----|
    E------3--5-------------------------------------------5-5-5-2-2-2-2----------5-5-|
     ....|		 	  pm.....................................................
    
    E--------------------------------------------------------------------------------|
    B--------------------------------------------------------------------------------|
    G--------------4h5p4-------------------------------------------------------------|
    D--------------------4h5p4p2---------------------4-4-4-5-5-5-4-4-4--------------|
    A-----2--2-2-2----------------2-2-2-4-4-4-5-5-5-5--------------------5-5-5-5-----|
    E-5-5------------------------------------------------------------------------5-5-|
     .............|              pm..................................................
    
    E--------------------------------------------------------------------------------|
    B--------------------------------------------------------------------------------|
    G--------------------------------------------------------------------------------|
    D--------------------------------------------------------------------------------|
    A-----2-5-4-2-1-----1-----2-2-2-4-4-4-5-5-5-5--2-2-2----------------5-5-5-5------|
    E-5-5-----------2-4----------------------------------5-5-5-2-2-2-2-----------5-5-|
     ....................|  pm.......................................................
    
    E--------------------------------------------------------------------------------|
    B--------------------------------------------------------------------------------|
    G---------------4h5p4------------------------------------------------------------|
    D---------------------4h5p4p2---------------------------------------------------|
    A-----2--2-2-2-----------------2-2-2-4-4-4-5-5-5-5--2-2-2----------------5-5-5-5-|
    E-5-5-----------------------------------------------------5-5-5-2-2-2-2----------|
     .............|               pm.................................................
    
    E--------------------------------------------------------------------------------|
    B--------------------------|----------|----------|----------|----------|---------|
    G--------------------------|--Bridge--|--Chorus--|--Riff-2--|--Riff-1--|*--------|
    D--------------------------|----------|----------|----------|----------|*--4-----|
    A---------2-5-4-2-1-----1--|----------|----------|----------|----------|---2---4-|
    E-5-5-5-5-----------2-4--------------------------------------------------------2-|
     ........................|    
    				    x2		 
    E--------------------------------------------------------------------------------|
    B-----Gtr.2:---------------------------|----------|------------------------------|
    G-----------4-6-7-6-4-----4-----------*|--Harp&---|------------------------------|
    D---------4-----7---7-4-4-4-6---6/8~--*|--Vocals--|------------------------------|
    A-7---5---2-----5---5-2---2-----4------|----------|------------------------2-5-5-|
    E-5---3-------------------0-----2--------------------3-3-3-3-3-3-3-3-3-3-5-------|
    						    pm...........................
    
    E--------------------------------------------------------------------------------|
    B--------------------------------------------------------------------------------|
    G--------------------------------------------------------------------------------|
    D--------------------------------------------------------------------------------|
    A-5-5-5-5-5-5-5-5-5-5-5-5-7-7-7-7-7-7-7-7-7-7-2-2-2-2-2-2-2-2-2-2-4-5-4-2-------|
    E--------------------------------------------------------------------------5-3--3|
     ................................................................................
    
    E--------------------------------------------------------------------------------|
    B--------------------------------------------------------------------------------|
    G-------------------------------------------------------------------------4-2----|
    D--------------------------------------------------------------2-2------------5-4|
    A-----------------------2-5-5-5-5-5-5-5-5-5-5-5-5--0-0-0-0-0-0-0--2-2-2--------|
    E-3-3-3-3-3-3-3-3-3-3-5----------------------------------------------------------|
     .............................................................|    pm............
    
    E--------------------------------------------------------------------------------|
    B--------------------------------------------------------------------------------|
    G--------------------------------------------------------------------------------|
    D-2-------------------7-7-7-7--9-9--7-4-4-4-4-----------7-7-7-7----------------2-|
    A---5-4-2----5-5-5-5--5-5-5-5--7-7--5-2-2-2-2--5-5-5-5--5-5-5-5--4-4-4-4-4-4-4-0-|
    E------------3-3-3-3---------------------------3-3-3-3-----------2-2-2-2-2-2-2---|
     ........|	
    
    			Gtr.1
    E--------------------------------14-12----------------14-12----------------15-14-|
    B-------|-------------|--12-1212-------15-14--12-1212-------15-14--13-1313-------|
    G-------|--Orchestra--|-Gtr.2----------------------------------------------------|
    D--4---|-------------|----------------------------------------------------------|
    A--2---|-------------|---9--------------------9-------------------10------------|
    E-------------------------7--------------------7--------------------8------------|
    
    E-----------------------------------------17-15-------------------17-15----------|
    B-17-12-15--12-1212-15-14-12-13~--15-1515-------18-17-15--15-1515-------18-17-15-|
    G--------------------------------------------------------------------------------|
    D----------------------------------7-----------------------7---------------------|
    A------------9---------------10----5-----------------------5---------------------|
    E------------7----------------8--------------------------------------------------|
    
    						    Guitar Solo
    E----------18-17------------------------------------14p10----14p10----14h19p14---|
    B--16-1616-------20-15-18--15-1515-18-17-15-16~--|--------12-------12----------17|
    G------------------------------------------------|-------------------------------|
    D---8-----------------------7----------------8---|-------------------------------|
    A---6-----------------------5----------------6---|-------------------------------|
    E--------------------------------------------------------------------------------|
    
    E-14-15-------------------15-----------------------------------------------14p10-|
    B------17-------------14-----19-17-15----------14-------17-15-14-----------------|
    G--------17---------15--15------------18-16-18----16-15----------16-15-15--------|
    D----------17--------------------------------------------------------------------|
    A------------19------------------------------------------------------------------|
    E--------------18~~--------------------------------------------------------------|
    
    E----14p10-----14-12-10--17p14----17p14----17-16-14--19p15----19p15-----19-15-17-|
    B-12-------12------------------15-------15-----------------15-------15-----------|
    G--------------------------------------------------------------------------------|
    D--------------------------------------------------------------------------------|
    A--------------------------------------------------------------------------------|
    E--------------------------------------------------------------------------------|
    
    							 w/Fill 1
    E-18~-16h18p16-14~---------------------------------------15-14-12-15-14-12-15-14|
    B--------------------|-------------|------------------|-------------------------|
    G---------------------|--Orchestra--|------------------|-------------------------|
    D---------------------|-------------|------4---6---7---|-------------------------|
    A---------------------|-------------|--7---2---4---5---|-------------------------|
    E--------------------------------------5-----------------------------------------|
    
    E-12-----------------------------------------------------------------------------|
    B----14-17-16-14-17-16-14-17-16-14--14-12-11-14-12-11-14-12-11-------------------|
    G---------------------------------------------------------------16-15-12-16-15-12|
    D--------------------------------------------------------------------------------|
    A--------------------------------------------------------------------------------|
    E--------------------------------------------------------------------------------|
    
    E--------------------10----------12----------14----------/19-17h19p17-15~--20-19-|
    B-----------12-11-12----12-11-12----12-11-12----12-11-12-------------------------|
    G-16-15-12-----------------------------------------------------------------------|
    D--------------------------------------------------------------------------------|
    A--------------------------------------------------------------------------------|
    E--------------------------------------------------------------------------------|
    
    E--------14-12-11-12-15-14-12-14--/20-19-17-19--17-19-17-14-17-19-17-14-17-19-17-|
    B--12-13-------------------------------------------------------------------------|
    G--------------------------------------------------------------------------------|
    D--------------------------------------------------------------------------------|
    A--------------------------------------------------------------------------------|
    E--------------------------------------------------------------------------------|
    
    							      x2
    E-14-17-19-17-14--16-18-16-13-16-18-16-13-19b(21)~~~---------------17b(19)~~~~---|
    B-----------------------------------------------------|----------|---------------|
    G-----------------------------------------------------|--Chorus--|---------------|
    D-----------------------------------------------------|----------|---------------|
    A-----------------------------------------------------|----------|--2-5-4-2-2-5-4|
    E--------------------------------------------------------------------------------|
    								   pm............
    
    E------------------17b(19)~~~~----------------||
    B---------------------------------------------||
    G---------------------------------------------|| end
    D------------------------------------4-------||
    A-2-2-5-4-2-2-5-4-2-2-5-4-2-2-5-4-2--2-------||
    E---------------------------------------------||
     ..................................|			
    
      Rhythm Guitar during guitar solo
    E-------------------------------------------------------------------------------|
    B-------------------------------------------------------------------------------|
    G-------------------------------------------------------------------------------|
    D------------------------------------------------------------------4----------2|
    A--2-2-2-2-2-2-2-2-------------------------------------------------2--4--5--4-0|
    E------------------2-2-2-2-2-2-2-2-3-3-3-3-3-3-3-3-2-2-2-2-2-2-2-2----2--3--2---|
      pm..............................................................|
    
      Fill 1
    E--------------------------------------|
    B--------------------------------------|
    G--------------------------------------|
    D--5------4-------5---6---11---11---|
    A--3--4---2---5---3---4----9----9---|
    E------2--------3----------------------|
    
    TABLATURE EXPLANATION
    ----------------------
    h= hammer on
    
    p= pull off
    
    pm..|= palm mute
    
    /= slide up
    
    = slide down
    
    |     |
    |     |
    |*   *| = repeat from * to *
    |*   *| 
    |     |
     

    Тональность:

    Нет текста!



    Назад
    Рекомендуем посмотреть другие песни исполнителя «Rhapsody»:

    • Комментарии Facebook ()
    • Комментарии ВКонтакте



    Добавить в Избранное Браузера
    Сохранить здесь Очистить


    x

    0


    +
    -

    +
    -

    -

    Авторизация





    Зарегистрироваться

    M

    Дата и время

    • 05:05:45
       

    Социальные ссылки


    Наши приложения

    • Muzbank App Play Market
    • Muzbank Amazon App