MUZBANK



A MOST COMPLETE BANK OF MUSIC INFORMATION

МУЗЫКАЛЬНО-ИНФОРМАЦИОННЫЙ БАНК







    RRiddlin Kids • Here We Go Again (аккорды и текст - chords & lyrics)


    319

    Print

    Видео «Here We Go Again (Riddlin Kids)»

    Видео клипы к песне подбираются автоматически сайтом youtube. Возможны некоторые несоответствия клипов песне.

    ↑ Спрятать рекламу ↑





     
    
    
    -------------------------------------------------------------------------------
    			     Here we go again - Riddlin Kids
    -------------------------------------------------------------------------------
    Tabbed by: Zero is great man
    Played with distortion
    
    Tuning:EADGBe
    
    Main: Riff
    e|---------------------------|
    B|---------------------------|
    G|-5-5-5-5-------------------|
    D|-5-5-5-5--7-7-7-7--5-5-5-5-|
    A|-3-3-3-3--7-7-7-7--5-5-5-5-|
    E|----------5-5-5-5--3-3-3-3-|
    
    Intro/Fill
    e|--------------------|
    B|--------------------|
    G|-5/12-10-9-5-7-10-9-|
    D|-x/-x-x--x-x-x-x--x-|
    A|-3/10-8--7-3-5-8--7-|
    E|--------------------|
     
    Intro Part 2:
    e|---------|
    B|---------|
    G|-5/9-5/9-|
    D|-x/x-x/x-|
    A|-3/7-3/7-|
    E|---------|
    
    Pre-Chorus
    e|-----------------------|
    B|-----------------------|
    G|-7-7-7-7--9-9-9-9------|
    D|-7-7-7-7--9-9-9-9--7-7-|
    A|-5-5-5-5--7-7-7-7--7-7-|
    E|-------------------5-5-|
    
    Bridge
    e|------------------------------------|
    B|------------------------------------|
    G|------------------------------------|
    D|-------------------7-7-7-7--5-5-5-5-|
    A|-7-7-7-7--4-4-4-4--5-5-5-5--3-3-3-3-|
    E|-5-5-5-5--2-2-2-2-------------------|
    
    | /  slide up
    |   slide down
    | h  hammer-on
    | p  pull-off
    | ~  vibrato
    | +  harmonic
    | x  Mute note
    
    Hopes this helps you all out, the main riff is basically the verse,
    the intro and the solo all in one. Enjoy!
    ====================================================================
     

    Тональность:

    Это должно быть в ТОП-листе! - Топ-лист композиций



    Назад
    Рекомендуем посмотреть другие песни исполнителя «Riddlin Kids»:

    • Комменты Fb ()
    • Комменты ВК



    Добавить в Избранное Браузера
    Сохранить здесь Очистить


    x

    0


    +
    -

    +
    -

    -

    Авторизация





    Зарегистрироваться

    M

    Дата и время

    • 03:43:36
       

    Социальные ссылки


    Наши приложения

    • Muzbank App Play Market
    • Muzbank Amazon App