MUZBANK



A Most Complete Bank Of Music Information

МУЗЫКАЛЬНО-ИНФОРМАЦИОННЫЙ БАНК

Поиск по сайту







    RRiddlin Kids • I Feel Fine (аккорды и текст - chords & lyrics)


    196

    Print

    Видео «I Feel Fine (Riddlin Kids)»

    Видео клипы к песне подбираются автоматически сайтом youtube. Возможны некоторые несоответствия клипов песне.

    ↑ Спрятать рекламу ↑



    Download


     
    
    
    RIDDLIN KIDS:I FEEL FINE
    ALBULM:HURRY UP AND WAIT.
    STANDARD TUNNING: EADGBe
    TABBED BY: ZERO IS GREAT MAN
    
    GUITAR 1 PLAYS LEAD
    GUITAR 2 PLAYS RHYTHEM
    
    P.M=PALM MUTE
    
    GUITAR 1 INTRO(PART 1)
    E|-9--9------------------|
    A|-11-11--11----11----11-|
    D|-11-11-----------11----|(x3)
    G|-----------10----------|
    B|-----------------------|
    e|-----------------------|
    
    GUITAR 2 INTRO(PART 1)
    E|-----------------------|
    A|-4-4-------------------|
    D|-6-6-------------------|(x3)
    G|-6-6-------------------|
    B|-----------------------|
    e|-----------------------|
    
    GUITAR 1 INTRO(PART 1)
    E|-2-2-----4-4-----|
    A|-4-4-3-4-6-6-3-4-|
    D|-4-4-----6-6-----|
    G|-----------------|
    B|-----------------|
    e|-----------------|
    
    GUITAR 2 INTRO(PART 2)
    E|-2-2-----4-4-----|
    A|-4-4-----6-6-----|
    D|-4-4-----6-6-----|
    G|-----------------|
    B|-----------------|
    e|-----------------|
    
    GUITAR 2 VERSE
      |-----P.M-------|      |-------P.M-------|
    E|---------4-4-4-4--------2-2-2-2--4-4-4-4-|
    A|-4-4-4-4-6-6-6-6--------4-4-4-4--6-6-6-6-|
    D|-6-6-6-6-6-6-6-6--------4-4-4-4--6-6-6-6-|
    G|-6-6-6-6---------------------------------|
    B|-----------------------------------------|
    e|-----------------------------------------|
    
                    A|-3-4-3-|GUITAR 1 VERSE FILL
    
    BOTH GUITARS PRECHORUS(1, 2, 3, 4,...)
    E|-2-2-2-2--4-|
    A|-4-4-4-4--6-|
    D|-4-4-4-4--6-|
    G|------------|
    B|------------|
    e|------------|
    
    GUITAR 2 CHORUS
    E|-------2--4---|
    A|-4--6--4--6---|
    D|-6--8--4--6---|
    G|-6--8---------|
    B|--------------|
    e|--------------|
    
    GUITAR 1 CHROUS FILL
    E|--------------|
    A|--------------|
    D|--------------|
    G|-5-6-5-6-5-6--|
    B|--------------|
    e|--------------|
    
    BOTH GUITARS BRIDGE
    E|-----------4-4-4-4--2-2-2-2--4-4-4-4-|
    A|--4-4-4-4--6-6-6-6--4-4-4-4--6-6-6-6-|
    D|--6-6-6-6--6-6-6-6--4-4-4-4--6-6-6-6-|
    G|--6-6-6-6----------------------------|
    B|-------------------------------------|
    e|-------------------------------------|
    
    BOTH GUITARS OUTRO
    E|-----|
    A|-4-4-|
    D|-6-6-|
    G|-6-6-|
    B|-----|
    e|-----|
     

    Тональность:

    Нет текста!



    Назад
    Рекомендуем посмотреть другие песни исполнителя «Riddlin Kids»:

    • Комментарии Facebook ()
    • Комментарии ВКонтакте



    Добавить в Избранное Браузера
    Сохранить здесь Очистить


    x

    0


    +
    -

    +
    -

    -

    Авторизация





    Зарегистрироваться

    M

    Дата и время

    • 06:11:25
       

    Социальные ссылки


    Наши приложения

    • Muzbank App Play Market
    • Muzbank Amazon App