MUZBANK



A Most Complete Bank Of Music Information

МУЗЫКАЛЬНО-ИНФОРМАЦИОННЫЙ БАНК

Поиск по сайту







    RRise Against • Blood Red White And Blue (аккорды и текст - chords & lyrics)


    271

    Print

    Видео «Blood Red White And Blue (Rise Against)»

    Видео клипы к песне подбираются автоматически сайтом youtube. Возможны некоторые несоответствия клипов песне.

    ↑ Спрятать рекламу ↑



    Download


     
    
    
    Rise Against - blood red,white and blue 
    
    By:Munkey999
    e-mail: smiler_coffee@hotmail.com
    #=X3 
    !=X5 
    *=X6 
    o=X8 
    m=palm mute 
    b=bend up 
    
    intro 
    guitar 1 (X2) 
    ---m-m---m-m---m-m-------------------------m-m---m-m---m-m-------------------- 
    -------------------11-10-11--o---#---#---------------------11-10-11---o---#--# 
    -8-8-8-------8-8-8----------11--13--10---8-8-8-------8-8-8----------11--10--7- 
    -8-8-8-3-3-3-8-8-8-----------x---x---x---8-8-8-3-3-3-8-8-8-----------x---x--x- 
    -6-6-6-3-3-3-6-6-6-----------9--11---8---6-6-6-3-3-3-6-6-6-----------9---8--5- 
    -------1-1-1-----------------------------------1-1-1-------------------------- 
    
    guitar 2 
    ---m-m---m-m---m-m---------------------- 
    ----------------------#-------o---#----- 
    -8-8-8-------8-8-8--10------11---6----#- 
    -8-8-8-3-3-3-8-8-8--10------11---6---8-- X4 
    -6-6-6-3-3-3-6-6-6---8-------9---4---8-- 
    -------1-1-1-------------------------6-- 
    
    guitar 1 
    ---- 
    --^- 
    -8-- 
    -x-- 
    -6-- 
    ---- 
    
    guitar 2 
    ---- 
    ---- 
    --^- 
    -2-- 
    -2-- 
    -0-- 
    
    pre-verse 
    guitar 1 
    ----------------------------------m-m-m-m-m-m-m-m-m-m-m- 
    ------o---------o---*------o---------------------------- 
    -----8---*-----8--11------8---*-6-6-6-6-6-6-6-6-6-6-6-6- 
    -8-9-8--9--8-9-8--11--8-9-8--9--6-6-6-6-6-6-6-6-6-6-6-6- 
    -8-9-6--9--8-9-6---9--8-9-6--9--4-4-4-4-4-4-4-4-4-4-4-4- 
    -6-7----7--6-7--------6-7----7-------------------------- 
    
    guitar 2 
    ----------------------------------m-m-m-m-m-m-m-m-m-m-m- 
    -------------------------------------------------------- 
    --------------------------------6-6-6-6-6-6-6-6-6-6-6-6- 
    --------------------------------6-6-6-6-6-6-6-6-6-6-6-6- 
    --------------------------------4-4-4-4-4-4-4-4-4-4-4-4- 
    -------------------------------------------------------- 
    
    verse 
    guitar 1 
    ------------------------------------------------------------------------ 
    ------o---------o---*------o-----*--*------o---------o---*------o-----*- 
    -----8---*-----8--11------8-----6--6------8---*-----8--11------8-----6-- 
    -8-9-8--9--8-9-8--11--8-9-8--9--6--6--8-9-8--9--8-9-8--11--8-9-8--9--6-- 
    -8-9-6--9--8-9-6---9--8-9-6--9--4--4--8-9-6--9--8-9-6---9--8-9-6--9--4-- 
    -6-7----7--6-7--------6-7----7--------6-7----7--6-7--------6-7----7----- 
    
    guitar 2 
    ------------------------------------------------------------------------ 
    ------o---------o---*------o-----*--*------o---------o---*------o-----*- 
    -----8---*-----8--11------8-----6--6------8---*-----8--11------8-----6-- 
    -8-9-8--9--8-9-8--11--8-9-8--9--6--6--8-9-8--9--8-9-8--11--8-9-8--9--6-- 
    -8-9-6--9--8-9-6---9--8-9-6--9--4--4--8-9-6--9--8-9-6---9--8-9-6--9--4-- 
    -6-7----7--6-7--------6-7----7--------6-7----7--6-7--------6-7----7----- 
    
    guitar 1 
    ----------------------------- 
    ----------------------------- 
    ----------------------------- 
    -6-8-8-6-8-8-6-8-8-8-6-4-3-2- 
    -6-8-8-6-8-8-6-8-8-8-6-4-3-2- 
    -4-6-6-4-6-6-4-6-6-6-4-2-1-0- 
    
    guitar 2 
    ----------------------------- 
    ----------------------------- 
    ----------------------------- 
    -6-8-8-6-8-8-6-8-8-8--------- 
    -6-8-8-6-8-8-6-8-8-8--------- 
    -4-6-6-4-6-6-4-6-6-6--------- 
    
    chorus 
    guitare 1 
    ----------------------------------------------------------- 
    ----------*------------------------*----------------------- 
    --*------4-------*-----*----*-----4-------*------*--------- 
    -2-------4------4-----6----2------4------4------6---------- 
    -2-------2------4-----6----2------2------4------6---------- 
    -0--------------2-----4----0-------------2------4---------- 
    
    guitar 2 
    ----------------------------------------------------------- 
    ---!------!------!-----*----!------!------!---------------- 
    -11--10-11--10-11--10-6---11--10-11--10-11--15-13-10-11-10- 
    --x---x--x---x--x---x-x----x---x--x---x--x---x--x--x--x--x- 
    --9---8--9---8--9---8-4----9---8--9---8--9--13-11--8--9--8- 
    ----------------------------------------------------------- 
    
    guitar 1 
    -------------------------------------------------------------- 
    ----------*------------------------*-------------------------- 
    --*------4-------*-----*----*-----4-------*------*----------^- 
    -2-------4------4-----6----2------4------4------6----------2-- 
    -2-------2------4-----6----2------2------4------6----------2-- 
    -0--------------2-----4----0-------------2------4----------0-- 
    
    guitar 2 
    -------------------------------------------------------------- 
    ---!------!------!-----*----!------!------!-----------------^- 
    -11--10-11--10-11--10-6---11--10-11--10-11--15-13-10-11-10-8-- 
    --x---x--x---x--x---x-x----x---x--x---x--x---x--x--x--x--x-x-- 
    --9---8--9---8--9---8-4----9---8--9---8--9--13-11--8--9--8-6-- 
    -------------------------------------------------------------- 
    
    pre-verse 
    
    verse 
    
    chorus 
    
    bridge 
    guitar 1 
    --m--m--m--m--m--m--m--m--m--m--m--m--m--m-m-m--m--m--m--m--m--m--m--m- 
    ----------------------------------------------------------------------- 
    -14-14-15-15-14-14-12-12-11-11-12-12-11-11-9-9-14-14-15-15-14-14-12-12- 
    -14-14-15-15-14-14-12-12-11-11-12-12-11-11-9-9-14-14-15-15-14-14-12-12- 
    -12-12-13-13-12-12-10-10--9--9-10-10--9--9-7-7-12-12-13-13-12-12-10-10- 
    ----------------------------------------------------------------------- 
    
    guitar 2 
    ----------------------------------------------------------------------- 
    ----------------------------------------------------------------------- 
    ----------------------------------------------------------------------- 
    ----------------------------------------------------------------------- 
    ----------------------------------------------------------------------- 
    ----------------------------------------------------------------------- 
    
    guitar 1 
    ---m--m--m--m-m-m-m-m---m--m--m--m--m--m--m--m--m--m--m--m--m--m-m-m-------- 
    --------------------------------------------------------------------------*- 
    --11-11-12-12-9-9-9-9--14-14-15-15-14-14-12-12-11-11-12-12-11-11-9-9---*-6-- 
    --11-11-12-12-9-9-9-9--14-14-15-15-14-14-12-12-11-11-12-12-11-11-9-9--9--6-- 
    ---9--9-10-10-7-7-7-7--12-12-13-13-12-12-10-10--9--9-10-10--9--9-7-7--9--4-- 
    ----------------------------------------------------------------------7----- 
    
    guitar 2 
    ---------------------------------------------------------------------------- 
    ------------------------^-------------------------------------------------*- 
    -----------------------8-----------------------------------------------*-6-- 
    -----------------------8----------------------------------------------9--6-- 
    -----------------------6----------------------------------------------9--4-- 
    ----------------------------------------------------------------------7----- 
    
    guitar 1 and 2 (X2) 
    --m--m--m--m--m--m--m--m--m--m--m--m--m--m-m-m--m--m--m--m--m--m--m--m- 
    ----------------------------------------------------------------------- 
    -14-14-15-15-14-14-12-12-11-11-12-12-11-11-9-9-14-14-15-15-14-14-12-12- 
    -14-14-15-15-14-14-12-12-11-11-12-12-11-11-9-9-14-14-15-15-14-14-12-12- 
    -12-12-13-13-12-12-10-10--9--9-10-10--9--9-7-7-12-12-13-13-12-12-10-10- 
    ----------------------------------------------------------------------- 
    
    ---m--m--m--m-m-m-m-m---m--m--m--m--m--m--m--m--m--m--m--m--m--m-m-m-------- 
    --------------------------------------------------------------------------*- 
    --11-11-12-12-9-9-9-9--14-14-15-15-14-14-12-12-11-11-12-12-11-11-9-9---*-6-- 
    --11-11-12-12-9-9-9-9--14-14-15-15-14-14-12-12-11-11-12-12-11-11-9-9--9--6-- 
    ---9--9-10-10-7-7-7-7--12-12-13-13-12-12-10-10--9--9-10-10--9--9-7-7--9--4-- 
    ----------------------------------------------------------------------7----- 
    
    guitar 1 and 2 
    ---- 
    --^- 
    -8-- 
    -8-- 
    -6-- 
    ---- 
    
    solo 
    guitar 1 
    -11b-11b-11b-11b-11b----------------------------------------------------------- 
    ---------------------12-11-9b-12b-12-11-9-11b-12-11----------12-11-9----------- 
    -------------------------------------------------------10-11---------11b------- 
    ----------------------------------------------------13-------------------13-11- 
    ------------------------------------------------------------------------------- 
    ------------------------------------------------------------------------------- 
    
    -11b-11b-11b-14-11-11p12-14-12-11-12----14-12-11-12-11-12-14-16-14-12-11- 
    ------------------------------------------------------------------------- 
    ------------------------------------------------------------------------- 
    ------------------------------------------------------------------------- 
    ------------------------------------------------------------------------- 
    ------------------------------------------------------------------------- 
    
    ------------------------------------------------------------------------- 
    -12p10p11p10p12-12p10p11p10p12-12p10p11p10p12-12p10p11p10p12-----------^- 
    ----------------------------------------------------------------------8-- 
    -------------------------------------------------------------13b-11-8---- 
    ------------------------------------------------------------------------- 
    ------------------------------------------------------------------------- 
    
    guitar 2 
    --------------------------------------------------------------- 
    --*-----*---*--*-----*--*--*-----*---*--*-----*--------------^- 
    -8---*-8--11--8---*-6--6--8---*-8--11--8---*-6--------------8-- 
    -8--9--8--11--8--9--6--6--8--9--8--11--8--9--6--6-8-8-6-8-8-8-- 
    -6--9--6---9--6--9--4--4--6--9--6---9--6--9--4--6-8-8-6-8-8-6-- 
    ----7------------7-----------7------------7-----4-6-6-4-6-6----
     

    Тональность:

    Нет текста!



    Назад
    Рекомендуем посмотреть другие песни исполнителя «Rise Against»:

    • Комментарии Facebook ()
    • Комментарии ВКонтакте



    Добавить в Избранное Браузера
    Сохранить здесь Очистить


    x

    0


    +
    -

    +
    -

    -

    Авторизация





    Зарегистрироваться

    M

    Дата и время

    • 18:26:50
       

    Социальные ссылки


    Наши приложения

    • Muzbank App Play Market
    • Muzbank Amazon App