MUZBANK



A Most Complete Bank Of Music Information

МУЗЫКАЛЬНО-ИНФОРМАЦИОННЫЙ БАНК

Поиск по сайту







    RRitchie Blackmore • Under A Violet Moon (аккорды и текст - chords & lyrics)


    400

    Print

    Видео «Under A Violet Moon (Ritchie Blackmore)»

    Видео клипы к песне подбираются автоматически сайтом youtube. Возможны некоторые несоответствия клипов песне.

    ↑ Спрятать рекламу ↑



    Download


    Играется с каподастром на 3 ладу (соответственно все аккорды и
    табы указаны относительно каподастра)
    
    Intro:
    
    E|-------------------------------------------------0h1p0--|
    B|-----------0h1p0-------------3-1h3p1p0---------1--------|
    G|---------2-------2-------2-------------0-----2----------|
    D|-------2-----------2---2---2---------------2------------|
    A|-----0---------------0-------------------0--------------|
    E|-0h3----------------------------------------------------|
    
    E|----------------|
    B|3-1h3p1p0-------|
    G|----------2-0-2-|
    D|----------------|
    A|--------------0-|
    E|----------------|
    
    E|-----------------------------0h1p0---|
    B|-----------0h1p0-----------1-------3-|
    G|---------2-------2-------2-----------|
    D|-------2-----------2---2-------------|
    A|-----0---------------0---------------|
    E|-0h3---------------------------------|
    
    E|-------5-7h8p7-5-----------|
    B|-----5-----------5---------|
    G|---5---------------5-4h5-2-|
    D|---------------------------|
    A|-0-----------------------0-|
    E|---------------------------|
    
     Am             G
    Dancing to the feel of the drum
     Am                 G
    Leave this world behind
     Am                     G
    We?ll have a drink and toast to ourselves
    F        Em      Am
    Under a Violet Moon
     Am                  G
    Tudor Rose with her hair in curls
          Am                 G
    Will make you turn and stare
      Am            G
    Try to steal a kiss at the bridge
    F        Em     Am
    Under a Violet Moon
    
    Припев:
     Am                        Dm      G
    Raise your hats and your glasses too
     G                  C
    We will dance the whole night through
     C           G/H       F        Am
    We?re going back to a time we knew
    F        Em     Am
    Under a Violet Moon
    
    Cheers to the Knights and days of old
    the beggars and the thieves
    living in an enchanted wood
    Under a Violet Moon
    
    Fortuneteller what do you see
    Future in a card
    Share your secrets, tell them to me
    Under a Violet Moon
    
    Close your eyes and lose yourself
    In a medieval mood
    Taste the treasures and sing the tunes
    Under a Violet Moon
    
    Tis my delight on a shiny night
    The seasons of a year
    To keep the lanterns burning bright
    Under a Violet Moon
    
    Вариант для второй гитары:
    Куплет:
       Am        G         Am      G
    E|-----------------------------------|
    B|-------0-1-3-0-----------0-1-0-----|
    G|-2-2-2---------2-0---0-0-------2-0-|
    D|-----------------------------------|
    A|-0-------------------2-------------|
    E|-----------------------------3-----|
    
       Am        G         F     Em  Am
    E|---------------------------------|
    B|-------0-1-3-0-------1-0---------|
    G|-2-2-2---------2-0-------2-0-0-2-|
    D|---------------------------------|
    A|-0-----------------------------0-|
    E|---------------------1-----0-----|
    
    Припев:
    
       Am        Dm      G         C
    E|-0-0-0---0-1-0---------------0-----|
    B|-------3-------3---3-3-3-1-3---3-1-|
    G|-----------------------------------|
    D|-----------0-----------------------|
    A|-0---------------------------3-----|
    E|-------------------3---------------|
    
       C     G     F   Am F     Em  Am
    E|-------------------0-----------|
    B|---0-1---0-1---3-1---3-1-0-1---|
    G|-2-----0---------------------2-|
    D|-------------3-----------------|
    A|-----------------------------0-|
    E|-------------------------------|
    

    Тональность:

    Нет текста!



    Назад
    Рекомендуем посмотреть другие песни исполнителя «Ritchie Blackmore»:

    • Комментарии Facebook ()
    • Комментарии ВКонтакте



    Добавить в Избранное Браузера
    Сохранить здесь Очистить


    x

    0


    +
    -

    +
    -

    -

    Авторизация





    Зарегистрироваться

    M

    Дата и время

    • 03:32:12
       

    Социальные ссылки


    Наши приложения

    • Muzbank App Play Market
    • Muzbank Amazon App