MUZBANK



A Most Complete Bank Of Music Information

МУЗЫКАЛЬНО-ИНФОРМАЦИОННЫЙ БАНК

Поиск по сайту







    RRivermaya • Balisong (аккорды и текст - chords & lyrics)


    191

    Print

    Видео «Balisong (Rivermaya)»

    Видео клипы к песне подбираются автоматически сайтом youtube. Возможны некоторые несоответствия клипов песне.

    ↑ Спрятать рекламу ↑



    Download



     
    
    
    tabbed by marcolang
    ***my first tab for all my friends! Animo!
    
    Intro:
    
    e|--9--11?
        your face,
    
    e|--9--11-14-13	-	-11-9-
        lights up the sky on the
    
    e|--9--11?	-9-14-13-11-
        highway
    e|--9--11?
        someday,
    
    e|--9--11-14-13	-	     -11-9-
        you?ll share your world with me,
    
    e|--9--11?	
        someday...
    
    verses:
    
    (CHORD PATTERN)
    e-----------------------
    B-------2--T------------
    G-----4----A---1--------
    D--4-------P---2--------
    A--------------2--------
    E--------------0--------
          You mesmerize me, 
    e-----------------------
    B-------2--T------------
    G-----4----A---1--------
    D--4-------P---2--------
    A--------------2--------
    E--------------0--------
          with diamond eyes...
    
    ***the pattern goes for the whole verses...just go with the beat!          	
    
    Chorus:
    
        B-  BM7-   C#m-    Em
    e|------------------4---7---|
    B|-------7----------5---8---|
    G|--8----8----------6---9---|
    D|--9----9----10-or-6---9---|2x
    A|--9---------10----4---7---|
    E|--7---------8-------------|
    ***at the first chorus, strum the Em only once for the second repetition (like the idea of hold or pause)
    
    Then Repeat chord pattern of verse 4x:
    Verse2:
    Chorus:(this time and for the next chorus repetitions strum the Em as one beat.
    Instrumental: (do chorus chords)
    Chorus:
    Do chorus chord pattern of the first chorus: (where at the second repetition, Em is    strummed only once)
    Then Do this:  
     e|--9--11?	-9-14-13-11-
    ***that?s it! Enjoy! Animo!
     

    Тональность:

    Нет текста!



    Назад
    Рекомендуем посмотреть другие песни исполнителя «Rivermaya»:

    • Комментарии Facebook ()
    • Комментарии ВКонтакте



    Добавить в Избранное Браузера
    Сохранить здесь Очистить


    x

    0


    +
    -

    +
    -

    -

    Авторизация





    Зарегистрироваться

    M

    Дата и время

    • 23:35:02
       

    Социальные ссылки


    Наши приложения

    • Muzbank App Play Market
    • Muzbank Amazon App